  0
SECTION
  2
HEADER
  9
$ACADVER
  1
AC1015
  9
$ACADMAINTVER
 70
     6
  9
$DWGCODEPAGE
  3
DOS932
  9
$INSBASE
 10
0.0
 20
0.0
 30
0.0
  9
$EXTMIN
 10
8692.062853
 20
2518.066334
 30
0.0
  9
$EXTMAX
 10
80202.909687
 20
44240.373046
 30
0.0
  9
$LIMMIN
 10
0.0
 20
0.0
  9
$LIMMAX
 10
420.0
 20
297.0
  9
$ORTHOMODE
 70
     0
  9
$REGENMODE
 70
     1
  9
$FILLMODE
 70
     1
  9
$QTEXTMODE
 70
     0
  9
$MIRRTEXT
 70
     1
  9
$LTSCALE
 40
200.0
  9
$ATTMODE
 70
     1
  9
$TEXTSIZE
 40
0.2
  9
$TRACEWID
 40
0.05
  9
$TEXTSTYLE
  7
Standard
  9
$CLAYER
  8
0
  9
$CELTYPE
  6
Continuous
  9
$CECOLOR
 62
   256
  9
$CELTSCALE
 40
1.0
  9
$DISPSILH
 70
     0
  9
$DIMSCALE
 40
200.0
  9
$DIMASZ
 40
0.18
  9
$DIMEXO
 40
0.0625
  9
$DIMDLI
 40
0.38
  9
$DIMRND
 40
0.0
  9
$DIMDLE
 40
0.0
  9
$DIMEXE
 40
0.18
  9
$DIMTP
 40
0.0
  9
$DIMTM
 40
0.0
  9
$DIMTXT
 40
0.18
  9
$DIMCEN
 40
0.09
  9
$DIMTSZ
 40
0.0
  9
$DIMTOL
 70
     0
  9
$DIMLIM
 70
     0
  9
$DIMTIH
 70
     1
  9
$DIMTOH
 70
     1
  9
$DIMSE1
 70
     0
  9
$DIMSE2
 70
     0
  9
$DIMTAD
 70
     0
  9
$DIMZIN
 70
     0
  9
$DIMBLK
  1

  9
$DIMASO
 70
     1
  9
$DIMSHO
 70
     1
  9
$DIMPOST
  1

  9
$DIMAPOST
  1

  9
$DIMALT
 70
     0
  9
$DIMALTD
 70
     2
  9
$DIMALTF
 40
25.4
  9
$DIMLFAC
 40
1.0
  9
$DIMTOFL
 70
     0
  9
$DIMTVP
 40
0.0
  9
$DIMTIX
 70
     0
  9
$DIMSOXD
 70
     0
  9
$DIMSAH
 70
     0
  9
$DIMBLK1
  1

  9
$DIMBLK2
  1

  9
$DIMSTYLE
  2
Standard
  9
$DIMCLRD
 70
     0
  9
$DIMCLRE
 70
     0
  9
$DIMCLRT
 70
     0
  9
$DIMTFAC
 40
1.0
  9
$DIMGAP
 40
0.09
  9
$DIMJUST
 70
     0
  9
$DIMSD1
 70
     0
  9
$DIMSD2
 70
     0
  9
$DIMTOLJ
 70
     1
  9
$DIMTZIN
 70
     0
  9
$DIMALTZ
 70
     0
  9
$DIMALTTZ
 70
     0
  9
$DIMUPT
 70
     0
  9
$DIMDEC
 70
     4
  9
$DIMTDEC
 70
     4
  9
$DIMALTU
 70
     2
  9
$DIMALTTD
 70
     2
  9
$DIMTXSTY
  7
Standard
  9
$DIMAUNIT
 70
     0
  9
$DIMADEC
 70
     0
  9
$DIMALTRND
 40
0.0
  9
$DIMAZIN
 70
     0
  9
$DIMDSEP
 70
     0
  9
$DIMATFIT
 70
     3
  9
$DIMFRAC
 70
     0
  9
$DIMLDRBLK
  1

  9
$DIMLUNIT
 70
     2
  9
$DIMLWD
 70
     0
  9
$DIMLWE
 70
     0
  9
$DIMTMOVE
 70
     0
  9
$LUNITS
 70
     2
  9
$LUPREC
 70
     4
  9
$SKETCHINC
 40
0.1
  9
$FILLETRAD
 40
0.0
  9
$AUNITS
 70
     0
  9
$AUPREC
 70
     0
  9
$MENU
  1
acad
  9
$ELEVATION
 40
0.0
  9
$PELEVATION
 40
0.0
  9
$THICKNESS
 40
0.0
  9
$LIMCHECK
 70
     0
  9
$CHAMFERA
 40
0.0
  9
$CHAMFERB
 40
0.0
  9
$CHAMFERC
 40
0.0
  9
$CHAMFERD
 40
0.0
  9
$SKPOLY
 70
     0
  9
$TDCREATE
 40
2453921.707997685
  9
$TDUCREATE
 40
0.000000000
  9
$TDUPDATE
 40
2453921.707997685
  9
$TDUUPDATE
 40
0.000000000
  9
$TDINDWG
 40
0.0000000000
  9
$TDUSRTIMER
 40
0.0000000000
  9
$USRTIMER
 70
     1
  9
$ANGBASE
 50
0.0
  9
$ANGDIR
 70
     0
  9
$PDMODE
 70
     0
  9
$PDSIZE
 40
0.0
  9
$PLINEWID
 40
0.0
  9
$SPLFRAME
 70
     0
  9
$SPLINETYPE
 70
     6
  9
$SPLINESEGS
 70
     8
  9
$HANDSEED
  5
1F7
  9
$SURFTAB1
 70
     6
  9
$SURFTAB2
 70
     6
  9
$SURFTYPE
 70
     6
  9
$SURFU
 70
     6
  9
$SURFV
 70
     6
  9
$UCSBASE
  2

  9
$UCSNAME
  2

  9
$UCSORG
 10
0.0
 20
0.0
 30
0.0
  9
$UCSXDIR
 10
1.0
 20
0.0
 30
0.0
  9
$UCSYDIR
 10
0.0
 20
1.0
 30
0.0
  9
$UCSORTHOREF
  2

  9
$UCSORTHOVIEW
 70
     0
  9
$UCSORGTOP
 10
0.0
 20
0.0
 30
0.0
  9
$UCSORGBOTTOM
 10
0.0
 20
0.0
 30
0.0
  9
$UCSORGLEFT
 10
0.0
 20
0.0
 30
0.0
  9
$UCSORGRIGHT
 10
0.0
 20
0.0
 30
0.0
  9
$UCSORGFRONT
 10
0.0
 20
0.0
 30
0.0
  9
$UCSORGBACK
 10
0.0
 20
0.0
 30
0.0
  9
$PUCSBASE
  2

  9
$PUCSNAME
  2

  9
$PUCSORG
 10
0.0
 20
0.0
 30
0.0
  9
$PUCSXDIR
 10
1.0
 20
0.0
 30
0.0
  9
$PUCSYDIR
 10
0.0
 20
1.0
 30
0.0
  9
$PUCSORTHOREF
  2

  9
$PUCSORTHOVIEW
 70
     0
  9
$PUCSORGTOP
 10
0.0
 20
0.0
 30
0.0
  9
$PUCSORGBOTTOM
 10
0.0
 20
0.0
 30
0.0
  9
$PUCSORGLEFT
 10
0.0
 20
0.0
 30
0.0
  9
$PUCSORGRIGHT
 10
0.0
 20
0.0
 30
0.0
  9
$PUCSORGFRONT
 10
0.0
 20
0.0
 30
0.0
  9
$PUCSORGBACK
 10
0.0
 20
0.0
 30
0.0
  9
$USERI1
 70
     0
  9
$USERI2
 70
     0
  9
$USERI3
 70
     0
  9
$USERI4
 70
     0
  9
$USERI5
 70
     0
  9
$USERR1
 40
0.0
  9
$USERR2
 40
0.0
  9
$USERR3
 40
0.0
  9
$USERR4
 40
0.0
  9
$USERR5
 40
0.0
  9
$WORLDVIEW
 70
     1
  9
$SHADEDGE
 70
     3
  9
$SHADEDIF
 70
    70
  9
$TILEMODE
 70
     1
  9
$MAXACTVP
 70
    16
  9
$PINSBASE
 10
0.0
 20
0.0
 30
0.0
  9
$PLIMCHECK
 70
     0
  9
$PEXTMIN
 10
1.000000E+20
 20
1.000000E+20
 30
1.000000E+20
  9
$PEXTMAX
 10
-1.000000E+20
 20
-1.000000E+20
 30
-1.000000E+20
  9
$PLIMMIN
 10
0.0
 20
0.0
  9
$PLIMMAX
 10
12.0
 20
9.0
  9
$UNITMODE
 70
     0
  9
$VISRETAIN
 70
     0
  9
$PLINEGEN
 70
     1
  9
$PSLTSCALE
 70
     0
  9
$TREEDEPTH
 70
  3020
  9
$CMLSTYLE
  2
Standard
  9
$CMLJUST
 70
     0
  9
$CMLSCALE
 40
1.0
  9
$PROXYGRAPHICS
 70
     0
  9
$MEASUREMENT
 70
     0
  9
$CELWEIGHT
370
     0
  9
$ENDCAPS
280
     0
  9
$JOINSTYLE
280
     0
  9
$LWDISPLAY
290
     0
  9
$INSUNITS
 70
     0
  9
$HYPERLINKBASE
  1

  9
$STYLESHEET
  1

  9
$XEDIT
290
     1
  9
$CEPSNTYPE
380
     0
  9
$PSTYLEMODE
290
     1
  9
$FINGERPRINTGUID
  2

  9
$VERSIONGUID
  2

  9
$EXTNAMES
290
     1
  9
$PSVPSCALE
 40
0.0
  0
ENDSEC
  0
SECTION
  2
CLASSES
  0
CLASS
  1
LWPOLYLINE
  2
AcDbPolyline
  3
AutoCAD 2000
 90
        0
280
     0
281
     1
  0
CLASS
  1
IMAGE
  2
AcDbRasterImage
  3
ISM
 90
      127
280
     0
281
     1
  0
CLASS
  1
OLE2FRAME
  2
AcDbOle2Frame
  3
AutoCAD 2000
 90
        0
280
     0
281
     1
  0
CLASS
  1
HATCH
  2
AcDbHatch
  3
AutoCAD 2000
 90
        0
280
     0
281
     1
  0
CLASS
  1
DICTIONARYVAR
  2
AcDbDictionaryVar
  3
AutoCAD 2000
 90
        0
280
     0
281
     0
  0
CLASS
  1
RASTERVARIABLES
  2
AcDbRasterVariables
  3
ISM
 90
        0
280
     0
281
     0
  0
CLASS
  1
IMAGEDEF
  2
AcDbRasterImageDef
  3
ISM
 90
        0
280
     0
281
     0
  0
CLASS
  1
IMAGEDEF_REACTOR
  2
AcDbRasterImageDefReactor
  3
ISM
 90
        1
280
     0
281
     0
  0
CLASS
  1
IDBUFFER
  2
AcDbIdBuffer
  3
AutoCAD 2000
 90
        0
280
     0
281
     0
  0
CLASS
  1
SPATIAL_FILTER
  2
AcDbSpatialFilter
  3
AutoCAD 2000
 90
        0
280
     0
281
     0
  0
CLASS
  1
XRECORD
  2
AcDbXrecord
  3
AutoCAD 2000
 90
        0
280
     0
281
     0
  0
CLASS
  1
SORTENTSTABLE
  2
AcDbSortentsTable
  3
AutoCAD 2000
 90
        0
280
     0
281
     0
  0
CLASS
  1
LAYER_INDEX
  2
AcDbLayerIndex
  3
AutoCAD 2000
 90
        0
280
     0
281
     0
  0
CLASS
  1
SPATIAL_INDEX
  2
AcDbSpatialIndex
  3
AutoCAD 2000
 90
        0
280
     0
281
     0
  0
CLASS
  1
OBJECT_PTR
  2
CAseDLPNTableRecord
  3
"ASE-LPNTableRecord"
 90
        1
280
     0
281
     0
  0
CLASS
  1
LAYOUT
  2
AcDbLayout
  3
AutoCAD 2000
 90
        0
280
     0
281
     0
  0
CLASS
  1
PLOTSETTINGS
  2
AcDbPlotSettings
  3
AutoCAD 2000
 90
        0
280
     0
281
     0
  0
CLASS
  1
ACDBDICTIONARYWDFLT
  2
AcDbDictionaryWithDefault
  3
AutoCAD 2000
 90
        0
280
     0
281
     0
  0
CLASS
  1
ACDBPLACEHOLDER
  2
AcDbPlaceHolder
  3
AutoCAD 2000
 90
        0
280
     0
281
     0
  0
ENDSEC
  0
SECTION
  2
TABLES
  0
TABLE
  2
VPORT
  5
7
100
AcDbSymbolTable
 70
     1
  0
VPORT
  5
15
100
AcDbSymbolTableRecord
100
AcDbViewportTableRecord
  2
*ACTIVE
 70
     0
 10
0.0
 20
0.0
 11
1.0
 21
1.0
 12
210.0
 22
148.5
 13
0.0
 23
0.0
 14
1.0
 24
1.0
 15
0.0
 25
0.0
 16
0.0
 26
0.0
 36
1.0
 17
0.0
 27
0.0
 37
0.0
 40
297.0
 41
1.414141
 42
50.0
 43
0.0
 44
0.0
 50
0.0
 51
0.0
 71
     0
 72
   100
 73
     1
 74
     1
 75
     0
 76
     0
 77
     0
 78
     0
281
     0
 65
     0
110
0.0
120
0.0
130
0.0
111
1.0
121
0.0
131
0.0
112
0.0
122
1.0
132
0.0
345
0
346
0
 79
     0
146
0.0
  0
ENDTAB
  0
TABLE
  2
LTYPE
  5
4
100
AcDbSymbolTable
 70
     3
  0
LTYPE
  5
11
100
AcDbSymbolTableRecord
100
AcDbLinetypeTableRecord
  2
ByBlock
 70
    64
  3

 72
    65
 73
     0
 40
0.0
  0
LTYPE
  5
12
100
AcDbSymbolTableRecord
100
AcDbLinetypeTableRecord
  2
ByLayer
 70
    64
  3

 72
    65
 73
     0
 40
0.0
  0
LTYPE
  5
13
100
AcDbSymbolTableRecord
100
AcDbLinetypeTableRecord
  2
Continuous
 70
    64
  3
Solid line
 72
    65
 73
     0
 40
0.0
  0
ENDTAB
  0
TABLE
  2
LAYER
  5
2
100
AcDbSymbolTable
 70
     4
  0
LAYER
  5
14
100
AcDbSymbolTableRecord
100
AcDbLayerTableRecord
  2
0
 70
     0
 62
     7
  6
Continuous
290
     1
370
    -3
390
1D
  0
LAYER
  5
23
100
AcDbSymbolTableRecord
100
AcDbLayerTableRecord
  2
V-nasSTD
 70
     0
 62
     7
  6
Continuous
290
     1
370
     0
390
1D
  0
LAYER
  5
24
100
AcDbSymbolTableRecord
100
AcDbLayerTableRecord
  2
画層0
 70
     0
 62
     7
  6
Continuous
290
     1
370
    13
390
1D
  0
LAYER
  5
25
100
AcDbSymbolTableRecord
100
AcDbLayerTableRecord
  2
作業ﾚｲﾔ1
 70
     0
 62
     7
  6
Continuous
290
     1
370
    13
390
1D
  0
ENDTAB
  0
TABLE
  2
STYLE
  5
3
100
AcDbSymbolTable
 70
     7
  0
STYLE
  5
17
100
AcDbSymbolTableRecord
100
AcDbTextStyleTableRecord
  2
Standard
 70
     0
 40
0.0
 41
1.0
 50
0.0
 71
     0
 42
0.0
  3
txt
  4

  0
STYLE
  5
26
100
AcDbSymbolTableRecord
100
AcDbTextStyleTableRecord
  2
YOKO
 70
     0
 40
0.0
 41
1.0
 50
0.0
 71
     0
 42
0.0
  3
monotxt
  4
bigfont
  0
STYLE
  5
27
100
AcDbSymbolTableRecord
100
AcDbTextStyleTableRecord
  2
YOKO_MINCHO
 70
     0
 40
0.0
 41
1.0
 50
0.0
 71
     0
 42
0.0
  3
MS Mincho.ttf
  4

1001
ACAD
1000
MS Mincho
1071
    32785
  0
STYLE
  5
28
100
AcDbSymbolTableRecord
100
AcDbTextStyleTableRecord
  2
YOKO_GOTHIC
 70
     0
 40
0.0
 41
1.0
 50
0.0
 71
     0
 42
0.0
  3
MS Gothic.ttf
  4

1001
ACAD
1000
MS Gothic
1071
    32817
  0
STYLE
  5
29
100
AcDbSymbolTableRecord
100
AcDbTextStyleTableRecord
  2
YOKO_PMINCHO
 70
     0
 40
0.0
 41
1.0
 50
0.0
 71
     0
 42
0.0
  3
MS PMincho.ttf
  4

1001
ACAD
1000
MS PMincho
1071
    32786
  0
STYLE
  5
2A
100
AcDbSymbolTableRecord
100
AcDbTextStyleTableRecord
  2
YOKO_PGOTHIC
 70
     0
 40
0.0
 41
1.0
 50
0.0
 71
     0
 42
0.0
  3
MS PGothic.ttf
  4

1001
ACAD
1000
MS PGothic
1071
    32818
  0
STYLE
  5
2B
100
AcDbSymbolTableRecord
100
AcDbTextStyleTableRecord
  2
TATE
 70
     4
 40
0.0
 41
1.0
 50
0.0
 71
     0
 42
0.0
  3
monotxt
  4
bigfont
  0
ENDTAB
  0
TABLE
  2
VIEW
  5
5
100
AcDbSymbolTable
 70
     0
  0
ENDTAB
  0
TABLE
  2
UCS
  5
6
100
AcDbSymbolTable
 70
     0
  0
ENDTAB
  0
TABLE
  2
APPID
  5
8
100
AcDbSymbolTable
 70
     1
  0
APPID
  5
16
100
AcDbSymbolTableRecord
100
AcDbRegAppTableRecord
  2
ACAD
 70
     0
  0
ENDTAB
  0
TABLE
  2
DIMSTYLE
  5
9
100
AcDbSymbolTable
 70
     6
100
AcDbDimStyleTable
 71
     0
  0
DIMSTYLE
105
18
100
AcDbSymbolTableRecord
100
AcDbDimStyleTableRecord
  2
Standard
 70
     0
  3

  4

 40
1.0
 41
0.18
 42
0.0625
 43
0.38
 44
0.18
 45
0.0
 46
0.0
 47
0.0
 48
0.0
 71
     0
 72
     0
 73
     1
 74
     1
 75
     0
 76
     0
 77
     0
 78
     0
 79
     0
140
0.18
141
0.09
142
0.0
143
25.4
144
1.0
145
0.0
146
1.0
147
0.09
148
0.0
170
     0
171
     2
172
     0
173
     0
174
     0
175
     0
176
     0
177
     0
178
     0
179
     0
271
     4
272
     4
273
     2
274
     2
275
     0
276
     0
277
     2
278
    46
279
     0
280
     0
281
     0
282
     0
283
     1
284
     0
285
     0
286
     0
288
     0
289
     3
340
17
341
0
342
0
343
0
344
0
371
    -2
372
    -2
  0
DIMSTYLE
105
70
100
AcDbSymbolTableRecord
100
AcDbDimStyleTableRecord
  2
Vnas
 70
     0
  3

  4

 40
1.0
 41
0.18
 42
0.0625
 43
0.38
 44
0.18
 45
0.0
 46
0.0
 47
0.0
 48
0.0
 71
     0
 72
     0
 73
     0
 74
     0
 75
     0
 76
     0
 77
     1
 78
     0
 79
     0
140
0.18
141
0.09
142
0.0
143
25.4
144
1.0
145
0.0
146
1.0
147
0.09
148
0.0
170
     0
171
     2
172
     0
173
     1
174
     0
175
     0
176
     0
177
     0
178
     0
179
     0
271
     4
272
     4
273
     2
274
     2
275
     0
276
     0
277
     2
278
    46
279
     0
280
     0
281
     0
282
     0
283
     1
284
     0
285
     0
286
     0
288
     0
289
     3
340
26
341
0
342
0
343
0
344
0
371
    -2
372
    -2
  0
DIMSTYLE
105
71
100
AcDbSymbolTableRecord
100
AcDbDimStyleTableRecord
  2
Vnas_Mincho
 70
     0
  3

  4

 40
1.0
 41
0.18
 42
0.0625
 43
0.38
 44
0.18
 45
0.0
 46
0.0
 47
0.0
 48
0.0
 71
     0
 72
     0
 73
     0
 74
     0
 75
     0
 76
     0
 77
     1
 78
     0
 79
     0
140
0.18
141
0.09
142
0.0
143
25.4
144
1.0
145
0.0
146
1.0
147
0.09
148
0.0
170
     0
171
     2
172
     0
173
     1
174
     0
175
     0
176
     0
177
     0
178
     0
179
     0
271
     4
272
     4
273
     2
274
     2
275
     0
276
     0
277
     2
278
    46
279
     0
280
     0
281
     0
282
     0
283
     1
284
     0
285
     0
286
     0
288
     0
289
     3
340
27
341
0
342
0
343
0
344
0
371
    -2
372
    -2
  0
DIMSTYLE
105
72
100
AcDbSymbolTableRecord
100
AcDbDimStyleTableRecord
  2
Vnas_Gothic
 70
     0
  3

  4

 40
1.0
 41
0.18
 42
0.0625
 43
0.38
 44
0.18
 45
0.0
 46
0.0
 47
0.0
 48
0.0
 71
     0
 72
     0
 73
     0
 74
     0
 75
     0
 76
     0
 77
     1
 78
     0
 79
     0
140
0.18
141
0.09
142
0.0
143
25.4
144
1.0
145
0.0
146
1.0
147
0.09
148
0.0
170
     0
171
     2
172
     0
173
     1
174
     0
175
     0
176
     0
177
     0
178
     0
179
     0
271
     4
272
     4
273
     2
274
     2
275
     0
276
     0
277
     2
278
    46
279
     0
280
     0
281
     0
282
     0
283
     1
284
     0
285
     0
286
     0
288
     0
289
     3
340
28
341
0
342
0
343
0
344
0
371
    -2
372
    -2
  0
DIMSTYLE
105
73
100
AcDbSymbolTableRecord
100
AcDbDimStyleTableRecord
  2
Vnas_PMincho
 70
     0
  3

  4

 40
1.0
 41
0.18
 42
0.0625
 43
0.38
 44
0.18
 45
0.0
 46
0.0
 47
0.0
 48
0.0
 71
     0
 72
     0
 73
     0
 74
     0
 75
     0
 76
     0
 77
     1
 78
     0
 79
     0
140
0.18
141
0.09
142
0.0
143
25.4
144
1.0
145
0.0
146
1.0
147
0.09
148
0.0
170
     0
171
     2
172
     0
173
     1
174
     0
175
     0
176
     0
177
     0
178
     0
179
     0
271
     4
272
     4
273
     2
274
     2
275
     0
276
     0
277
     2
278
    46
279
     0
280
     0
281
     0
282
     0
283
     1
284
     0
285
     0
286
     0
288
     0
289
     3
340
29
341
0
342
0
343
0
344
0
371
    -2
372
    -2
  0
DIMSTYLE
105
74
100
AcDbSymbolTableRecord
100
AcDbDimStyleTableRecord
  2
Vnas_PGothic
 70
     0
  3

  4

 40
1.0
 41
0.18
 42
0.0625
 43
0.38
 44
0.18
 45
0.0
 46
0.0
 47
0.0
 48
0.0
 71
     0
 72
     0
 73
     0
 74
     0
 75
     0
 76
     0
 77
     1
 78
     0
 79
     0
140
0.18
141
0.09
142
0.0
143
25.4
144
1.0
145
0.0
146
1.0
147
0.09
148
0.0
170
     0
171
     2
172
     0
173
     1
174
     0
175
     0
176
     0
177
     0
178
     0
179
     0
271
     4
272
     4
273
     2
274
     2
275
     0
276
     0
277
     2
278
    46
279
     0
280
     0
281
     0
282
     0
283
     1
284
     0
285
     0
286
     0
288
     0
289
     3
340
2A
341
0
342
0
343
0
344
0
371
    -2
372
    -2
  0
ENDTAB
  0
TABLE
  2
BLOCK_RECORD
  5
1
100
AcDbSymbolTable
 70
    13
  0
BLOCK_RECORD
  5
A
100
AcDbSymbolTableRecord
100
AcDbBlockTableRecord
  2
*MODEL_SPACE
340
20
  0
BLOCK_RECORD
  5
B
100
AcDbSymbolTableRecord
100
AcDbBlockTableRecord
  2
*PAPER_SPACE
340
21
  0
BLOCK_RECORD
  5
2C
100
AcDbSymbolTableRecord
100
AcDbBlockTableRecord
  2
_CLOSEDBLANK
340
0
  0
BLOCK_RECORD
  5
32
100
AcDbSymbolTableRecord
100
AcDbBlockTableRecord
  2
_CLOSED
340
0
  0
BLOCK_RECORD
  5
39
100
AcDbSymbolTableRecord
100
AcDbBlockTableRecord
  2
_DOT
340
0
  0
BLOCK_RECORD
  5
41
100
AcDbSymbolTableRecord
100
AcDbBlockTableRecord
  2
_OBLIQUE
340
0
  0
BLOCK_RECORD
  5
45
100
AcDbSymbolTableRecord
100
AcDbBlockTableRecord
  2
_OPEN
340
0
  0
BLOCK_RECORD
  5
4B
100
AcDbSymbolTableRecord
100
AcDbBlockTableRecord
  2
_ORIGIN
340
0
  0
BLOCK_RECORD
  5
50
100
AcDbSymbolTableRecord
100
AcDbBlockTableRecord
  2
_OPEN30
340
0
  0
BLOCK_RECORD
  5
56
100
AcDbSymbolTableRecord
100
AcDbBlockTableRecord
  2
_DOTBLANK
340
0
  0
BLOCK_RECORD
  5
5B
100
AcDbSymbolTableRecord
100
AcDbBlockTableRecord
  2
_BOXBLANK
340
0
  0
BLOCK_RECORD
  5
63
100
AcDbSymbolTableRecord
100
AcDbBlockTableRecord
  2
_BOXFILLED
340
0
  0
BLOCK_RECORD
  5
68
100
AcDbSymbolTableRecord
100
AcDbBlockTableRecord
  2
_INTEGRAL
340
0
  0
BLOCK_RECORD
  5
6D
100
AcDbSymbolTableRecord
100
AcDbBlockTableRecord
  2
_NONE
340
0
  0
BLOCK_RECORD
  5
1CC
100
AcDbSymbolTableRecord
100
AcDbBlockTableRecord
  2
GROUP1
340
0
102
{BLKREFS
331
1F0
102
}
  0
ENDTAB
  0
ENDSEC
  0
SECTION
  2
BLOCKS
  0
BLOCK
  5
D
100
AcDbEntity
  8
0
390
0
100
AcDbBlockBegin
  2
*MODEL_SPACE
 70
     0
 10
0.0
 20
0.0
 30
0.0
  3
*MODEL_SPACE
  1

  0
ENDBLK
  5
E
100
AcDbEntity
  8
0
390
0
100
AcDbBlockEnd
  0
BLOCK
  5
F
100
AcDbEntity
 67
     1
  8
0
390
0
100
AcDbBlockBegin
  2
*PAPER_SPACE
 70
     0
 10
0.0
 20
0.0
 30
0.0
  3
*PAPER_SPACE
  1

  0
ENDBLK
  5
10
100
AcDbEntity
 67
     1
  8
0
390
0
100
AcDbBlockEnd
  0
BLOCK
  5
2D
100
AcDbEntity
  8
0
390
0
100
AcDbBlockBegin
  2
_CLOSEDBLANK
 70
     0
 10
0.0
 20
0.0
 30
0.0
  3
_CLOSEDBLANK
  1

  0
LINE
  5
2E
100
AcDbEntity
  8
0
370
    -2
390
0
  6
ByBlock
 62
     0
100
AcDbLine
 10
-1.0
 20
0.166667
 30
0.0
 11
0.0
 21
0.0
 31
0.0
  0
LINE
  5
2F
100
AcDbEntity
  8
0
370
    -2
390
0
  6
ByBlock
 62
     0
100
AcDbLine
 10
0.0
 20
0.0
 30
0.0
 11
-1.0
 21
-0.166667
 31
0.0
  0
LINE
  5
30
100
AcDbEntity
  8
0
370
    -2
390
0
  6
ByBlock
 62
     0
100
AcDbLine
 10
-1.0
 20
0.166667
 30
0.0
 11
-1.0
 21
-0.166667
 31
0.0
  0
ENDBLK
  5
31
100
AcDbEntity
  8
0
390
0
100
AcDbBlockEnd
  0
BLOCK
  5
33
100
AcDbEntity
  8
0
390
0
100
AcDbBlockBegin
  2
_CLOSED
 70
     0
 10
0.0
 20
0.0
 30
0.0
  3
_CLOSED
  1

  0
LINE
  5
34
100
AcDbEntity
  8
0
370
    -2
390
0
  6
ByBlock
 62
     0
100
AcDbLine
 10
-1.0
 20
0.166667
 30
0.0
 11
0.0
 21
0.0
 31
0.0
  0
LINE
  5
35
100
AcDbEntity
  8
0
370
    -2
390
0
  6
ByBlock
 62
     0
100
AcDbLine
 10
0.0
 20
0.0
 30
0.0
 11
-1.0
 21
-0.166667
 31
0.0
  0
LINE
  5
36
100
AcDbEntity
  8
0
370
    -2
390
0
  6
ByBlock
 62
     0
100
AcDbLine
 10
-1.0
 20
0.166667
 30
0.0
 11
-1.0
 21
-0.166667
 31
0.0
  0
LINE
  5
37
100
AcDbEntity
  8
0
370
    -2
390
0
  6
ByBlock
 62
     0
100
AcDbLine
 10
0.0
 20
0.0
 30
0.0
 11
-1.0
 21
0.0
 31
0.0
  0
ENDBLK
  5
38
100
AcDbEntity
  8
0
390
0
100
AcDbBlockEnd
  0
BLOCK
  5
3A
100
AcDbEntity
  8
0
390
0
100
AcDbBlockBegin
  2
_DOT
 70
     0
 10
0.0
 20
0.0
 30
0.0
  3
_DOT
  1

  0
POLYLINE
  5
3B
100
AcDbEntity
  8
0
370
    -2
390
0
  6
ByBlock
 62
     0
100
AcDb2dPolyline
 66
     1
 10
0.0
 20
0.0
 30
0.0
 70
     1
 40
0.5
 41
0.5
  0
VERTEX
  5
3C
100
AcDbEntity
  8
0
370
    -2
390
0
  6
ByBlock
 62
     0
100
AcDbVertex
100
AcDb2dVertex
 10
-0.25
 20
0.0
 30
0.0
 42
1.0
  0
VERTEX
  5
3D
100
AcDbEntity
  8
0
370
    -2
390
0
  6
ByBlock
 62
     0
100
AcDbVertex
100
AcDb2dVertex
 10
0.25
 20
0.0
 30
0.0
 42
1.0
  0
SEQEND
  5
3E
100
AcDbEntity
  8
0
390
0
  0
LINE
  5
3F
100
AcDbEntity
  8
0
370
    -2
390
0
  6
ByBlock
 62
     0
100
AcDbLine
 10
-0.5
 20
0.0
 30
0.0
 11
-1.0
 21
0.0
 31
0.0
  0
ENDBLK
  5
40
100
AcDbEntity
  8
0
390
0
100
AcDbBlockEnd
  0
BLOCK
  5
42
100
AcDbEntity
  8
0
390
0
100
AcDbBlockBegin
  2
_OBLIQUE
 70
     0
 10
0.0
 20
0.0
 30
0.0
  3
_OBLIQUE
  1

  0
LINE
  5
43
100
AcDbEntity
  8
0
370
    -2
390
0
  6
ByBlock
 62
     0
100
AcDbLine
 10
-0.5
 20
-0.5
 30
0.0
 11
0.5
 21
0.5
 31
0.0
  0
ENDBLK
  5
44
100
AcDbEntity
  8
0
390
0
100
AcDbBlockEnd
  0
BLOCK
  5
46
100
AcDbEntity
  8
0
390
0
100
AcDbBlockBegin
  2
_OPEN
 70
     0
 10
0.0
 20
0.0
 30
0.0
  3
_OPEN
  1

  0
LINE
  5
47
100
AcDbEntity
  8
0
370
    -2
390
0
  6
ByBlock
 62
     0
100
AcDbLine
 10
-1.0
 20
0.166667
 30
0.0
 11
0.0
 21
0.0
 31
0.0
  0
LINE
  5
48
100
AcDbEntity
  8
0
370
    -2
390
0
  6
ByBlock
 62
     0
100
AcDbLine
 10
0.0
 20
0.0
 30
0.0
 11
-1.0
 21
-0.166667
 31
0.0
  0
LINE
  5
49
100
AcDbEntity
  8
0
370
    -2
390
0
  6
ByBlock
 62
     0
100
AcDbLine
 10
0.0
 20
0.0
 30
0.0
 11
-1.0
 21
0.0
 31
0.0
  0
ENDBLK
  5
4A
100
AcDbEntity
  8
0
390
0
100
AcDbBlockEnd
  0
BLOCK
  5
4C
100
AcDbEntity
  8
0
390
0
100
AcDbBlockBegin
  2
_ORIGIN
 70
     0
 10
0.0
 20
0.0
 30
0.0
  3
_ORIGIN
  1

  0
CIRCLE
  5
4D
100
AcDbEntity
  8
0
370
    -2
390
0
  6
ByBlock
 62
     0
100
AcDbCircle
 10
0.0
 20
0.0
 30
0.0
 40
0.5
  0
LINE
  5
4E
100
AcDbEntity
  8
0
370
    -2
390
0
  6
ByBlock
 62
     0
100
AcDbLine
 10
0.0
 20
0.0
 30
0.0
 11
-1.0
 21
0.0
 31
0.0
  0
ENDBLK
  5
4F
100
AcDbEntity
  8
0
390
0
100
AcDbBlockEnd
  0
BLOCK
  5
51
100
AcDbEntity
  8
0
390
0
100
AcDbBlockBegin
  2
_OPEN30
 70
     0
 10
0.0
 20
0.0
 30
0.0
  3
_OPEN30
  1

  0
LINE
  5
52
100
AcDbEntity
  8
0
370
    -2
390
0
  6
ByBlock
 62
     0
100
AcDbLine
 10
-1.0
 20
0.267949
 30
0.0
 11
0.0
 21
0.0
 31
0.0
  0
LINE
  5
53
100
AcDbEntity
  8
0
370
    -2
390
0
  6
ByBlock
 62
     0
100
AcDbLine
 10
0.0
 20
0.0
 30
0.0
 11
-1.0
 21
-0.267949
 31
0.0
  0
LINE
  5
54
100
AcDbEntity
  8
0
370
    -2
390
0
  6
ByBlock
 62
     0
100
AcDbLine
 10
0.0
 20
0.0
 30
0.0
 11
-1.0
 21
0.0
 31
0.0
  0
ENDBLK
  5
55
100
AcDbEntity
  8
0
390
0
100
AcDbBlockEnd
  0
BLOCK
  5
57
100
AcDbEntity
  8
0
390
0
100
AcDbBlockBegin
  2
_DOTBLANK
 70
     0
 10
0.0
 20
0.0
 30
0.0
  3
_DOTBLANK
  1

  0
CIRCLE
  5
58
100
AcDbEntity
  8
0
370
    -2
390
0
  6
ByBlock
 62
     0
100
AcDbCircle
 10
0.0
 20
0.0
 30
0.0
 40
0.5
  0
LINE
  5
59
100
AcDbEntity
  8
0
370
    -2
390
0
  6
ByBlock
 62
     0
100
AcDbLine
 10
-0.5
 20
0.0
 30
0.0
 11
-1.0
 21
0.0
 31
0.0
  0
ENDBLK
  5
5A
100
AcDbEntity
  8
0
390
0
100
AcDbBlockEnd
  0
BLOCK
  5
5C
100
AcDbEntity
  8
0
390
0
100
AcDbBlockBegin
  2
_BOXBLANK
 70
     0
 10
0.0
 20
0.0
 30
0.0
  3
_BOXBLANK
  1

  0
LINE
  5
5D
100
AcDbEntity
  8
0
370
    -2
390
0
  6
ByBlock
 62
     0
100
AcDbLine
 10
-0.5
 20
-0.5
 30
0.0
 11
0.5
 21
-0.5
 31
0.0
  0
LINE
  5
5E
100
AcDbEntity
  8
0
370
    -2
390
0
  6
ByBlock
 62
     0
100
AcDbLine
 10
0.5
 20
-0.5
 30
0.0
 11
0.5
 21
0.5
 31
0.0
  0
LINE
  5
5F
100
AcDbEntity
  8
0
370
    -2
390
0
  6
ByBlock
 62
     0
100
AcDbLine
 10
0.5
 20
0.5
 30
0.0
 11
-0.5
 21
0.5
 31
0.0
  0
LINE
  5
60
100
AcDbEntity
  8
0
370
    -2
390
0
  6
ByBlock
 62
     0
100
AcDbLine
 10
-0.5
 20
0.5
 30
0.0
 11
-0.5
 21
-0.5
 31
0.0
  0
LINE
  5
61
100
AcDbEntity
  8
0
370
    -2
390
0
  6
ByBlock
 62
     0
100
AcDbLine
 10
-0.5
 20
0.0
 30
0.0
 11
-1.0
 21
0.0
 31
0.0
  0
ENDBLK
  5
62
100
AcDbEntity
  8
0
390
0
100
AcDbBlockEnd
  0
BLOCK
  5
64
100
AcDbEntity
  8
0
390
0
100
AcDbBlockBegin
  2
_BOXFILLED
 70
     0
 10
0.0
 20
0.0
 30
0.0
  3
_BOXFILLED
  1

  0
SOLID
  5
65
100
AcDbEntity
  8
0
370
    -2
390
0
  6
ByBlock
 62
     0
100
AcDbTrace
 10
-0.5
 20
0.5
 30
0.0
 11
0.5
 21
0.5
 31
0.0
 12
-0.5
 22
-0.5
 32
0.0
 13
0.5
 23
-0.5
 33
0.0
  0
LINE
  5
66
100
AcDbEntity
  8
0
370
    -2
390
0
  6
ByBlock
 62
     0
100
AcDbLine
 10
-0.5
 20
0.0
 30
0.0
 11
-1.0
 21
0.0
 31
0.0
  0
ENDBLK
  5
67
100
AcDbEntity
  8
0
390
0
100
AcDbBlockEnd
  0
BLOCK
  5
69
100
AcDbEntity
  8
0
390
0
100
AcDbBlockBegin
  2
_INTEGRAL
 70
     0
 10
0.0
 20
0.0
 30
0.0
  3
_INTEGRAL
  1

  0
ARC
  5
6A
100
AcDbEntity
  8
0
370
    -2
390
0
  6
ByBlock
 62
     0
100
AcDbCircle
 10
0.444888
 20
-0.091335
 30
0.0
 40
0.454167
100
AcDbArc
 50
102.0
 51
168.0
  0
ARC
  5
6B
100
AcDbEntity
  8
0
370
    -2
390
0
  6
ByBlock
 62
     0
100
AcDbCircle
 10
-0.444888
 20
0.091335
 30
0.0
 40
0.454167
100
AcDbArc
 50
282.0
 51
348.0
  0
ENDBLK
  5
6C
100
AcDbEntity
  8
0
390
0
100
AcDbBlockEnd
  0
BLOCK
  5
6E
100
AcDbEntity
  8
0
390
0
100
AcDbBlockBegin
  2
_NONE
 70
     0
 10
0.0
 20
0.0
 30
0.0
  3
_NONE
  1

  0
ENDBLK
  5
6F
100
AcDbEntity
  8
0
390
0
100
AcDbBlockEnd
  0
BLOCK
  5
1CD
100
AcDbEntity
  8
0
390
0
100
AcDbBlockBegin
  2
GROUP1
 70
     0
 10
0.0
 20
0.0
 30
0.0
  3
GROUP1
  1

  0
LINE
  5
1CE
100
AcDbEntity
  8
作業ﾚｲﾔ1
370
    50
390
0
  6
Continuous
 62
     7
100
AcDbLine
 10
68567.709687
 20
2518.066334
 30
0.0
 11
80202.909687
 21
2518.066334
 31
0.0
  0
LINE
  5
1CF
100
AcDbEntity
  8
作業ﾚｲﾔ1
370
    50
390
0
  6
Continuous
 62
     7
100
AcDbLine
 10
80202.909687
 20
2518.066334
 30
0.0
 11
80202.909687
 21
9499.186334
 31
0.0
  0
LINE
  5
1D0
100
AcDbEntity
  8
作業ﾚｲﾔ1
370
    50
390
0
  6
Continuous
 62
     7
100
AcDbLine
 10
80202.909687
 20
9499.186334
 30
0.0
 11
68567.709687
 21
9499.186334
 31
0.0
  0
LINE
  5
1D1
100
AcDbEntity
  8
作業ﾚｲﾔ1
370
    50
390
0
  6
Continuous
 62
     7
100
AcDbLine
 10
68567.709687
 20
9499.186334
 30
0.0
 11
68567.709687
 21
8335.666334
 31
0.0
  0
LINE
  5
1D2
100
AcDbEntity
  8
作業ﾚｲﾔ1
370
    50
390
0
  6
Continuous
 62
     7
100
AcDbLine
 10
68567.709687
 20
9499.186334
 30
0.0
 11
68567.709687
 21
7172.146334
 31
0.0
  0
LINE
  5
1D3
100
AcDbEntity
  8
作業ﾚｲﾔ1
370
    50
390
0
  6
Continuous
 62
     7
100
AcDbLine
 10
68567.709687
 20
9499.186334
 30
0.0
 11
68567.709687
 21
6008.626334
 31
0.0
  0
LINE
  5
1D4
100
AcDbEntity
  8
作業ﾚｲﾔ1
370
    50
390
0
  6
Continuous
 62
     7
100
AcDbLine
 10
68567.709687
 20
9499.186334
 30
0.0
 11
68567.709687
 21
4845.106334
 31
0.0
  0
LINE
  5
1D5
100
AcDbEntity
  8
作業ﾚｲﾔ1
370
    50
390
0
  6
Continuous
 62
     7
100
AcDbLine
 10
68567.709687
 20
9499.186334
 30
0.0
 11
68567.709687
 21
3681.586334
 31
0.0
  0
LINE
  5
1D6
100
AcDbEntity
  8
作業ﾚｲﾔ1
370
    50
390
0
  6
Continuous
 62
     7
100
AcDbLine
 10
68567.709687
 20
9499.186334
 30
0.0
 11
68567.709687
 21
2518.066334
 31
0.0
  0
LINE
  5
1D7
100
AcDbEntity
  8
作業ﾚｲﾔ1
370
    50
390
0
  6
Continuous
 62
     7
100
AcDbLine
 10
68567.709687
 20
8335.666334
 30
0.0
 11
80202.909687
 21
8335.666334
 31
0.0
  0
LINE
  5
1D8
100
AcDbEntity
  8
作業ﾚｲﾔ1
370
    50
390
0
  6
Continuous
 62
     7
100
AcDbLine
 10
68567.709687
 20
7172.146334
 30
0.0
 11
80202.909687
 21
7172.146334
 31
0.0
  0
LINE
  5
1D9
100
AcDbEntity
  8
作業ﾚｲﾔ1
370
    50
390
0
  6
Continuous
 62
     7
100
AcDbLine
 10
68567.709687
 20
6008.626334
 30
0.0
 11
80202.909687
 21
6008.626334
 31
0.0
  0
LINE
  5
1DA
100
AcDbEntity
  8
作業ﾚｲﾔ1
370
    50
390
0
  6
Continuous
 62
     7
100
AcDbLine
 10
68567.709687
 20
4845.106334
 30
0.0
 11
80202.909687
 21
4845.106334
 31
0.0
  0
LINE
  5
1DB
100
AcDbEntity
  8
作業ﾚｲﾔ1
370
    50
390
0
  6
Continuous
 62
     7
100
AcDbLine
 10
68567.709687
 20
3681.586334
 30
0.0
 11
80202.909687
 21
3681.586334
 31
0.0
  0
LINE
  5
1DC
100
AcDbEntity
  8
作業ﾚｲﾔ1
370
    50
390
0
  6
Continuous
 62
     7
100
AcDbLine
 10
68567.709687
 20
9499.186334
 30
0.0
 11
71476.509687
 21
9499.186334
 31
0.0
  0
LINE
  5
1DD
100
AcDbEntity
  8
作業ﾚｲﾔ1
370
    50
390
0
  6
Continuous
 62
     7
100
AcDbLine
 10
71476.509687
 20
9499.186334
 30
0.0
 11
71476.509687
 21
2518.066334
 31
0.0
  0
LINE
  5
1DE
100
AcDbEntity
  8
作業ﾚｲﾔ1
370
    50
390
0
  6
Continuous
 62
     7
100
AcDbLine
 10
68567.709687
 20
2518.066334
 30
0.0
 11
74385.309687
 21
2518.066334
 31
0.0
  0
LINE
  5
1DF
100
AcDbEntity
  8
作業ﾚｲﾔ1
370
    50
390
0
  6
Continuous
 62
     7
100
AcDbLine
 10
68567.709687
 20
2518.066334
 30
0.0
 11
74385.309687
 21
2518.066334
 31
0.0
  0
LINE
  5
1E0
100
AcDbEntity
  8
作業ﾚｲﾔ1
370
    50
390
0
  6
Continuous
 62
     7
100
AcDbLine
 10
68567.709687
 20
2518.066334
 30
0.0
 11
77294.109687
 21
2518.066334
 31
0.0
  0
LINE
  5
1E1
100
AcDbEntity
  8
作業ﾚｲﾔ1
370
    50
390
0
  6
Continuous
 62
     7
100
AcDbLine
 10
74385.309687
 20
2518.066334
 30
0.0
 11
74385.309687
 21
3681.586334
 31
0.0
  0
LINE
  5
1E2
100
AcDbEntity
  8
作業ﾚｲﾔ1
370
    50
390
0
  6
Continuous
 62
     7
100
AcDbLine
 10
77294.109687
 20
2518.066334
 30
0.0
 11
77294.109687
 21
3681.586334
 31
0.0
  0
MTEXT
  5
1E3
100
AcDbEntity
  8
作業ﾚｲﾔ1
370
     0
390
0
  6
Continuous
 62
     7
100
AcDbMText
 10
68822.229687
 20
9305.266334
 30
0.0
 40
775.68
 41
3878.4
 71
     1
 72
     1
  1
\A1;\W1.00;\T1.00;\Q0.00;年
  7
YOKO_MINCHO
 73
     2
 44
0.66
  0
MTEXT
  5
1E4
100
AcDbEntity
  8
作業ﾚｲﾔ1
370
     0
390
0
  6
Continuous
 62
     7
100
AcDbMText
 10
70543.269687
 20
9305.266334
 30
0.0
 40
775.68
 41
3878.4
 71
     1
 72
     1
  1
\A1;\W1.00;\T1.00;\Q0.00;度
  7
YOKO_MINCHO
 73
     2
 44
0.66
  0
MTEXT
  5
1E5
100
AcDbEntity
  8
作業ﾚｲﾔ1
370
     0
390
0
  6
Continuous
 62
     7
100
AcDbMText
 10
68822.229687
 20
8141.746334
 30
0.0
 40
775.68
 41
3878.4
 71
     1
 72
     1
  1
\A1;\W1.00;\T1.00;\Q0.00;名
  7
YOKO_MINCHO
 73
     2
 44
0.66
  0
MTEXT
  5
1E6
100
AcDbEntity
  8
作業ﾚｲﾔ1
370
     0
390
0
  6
Continuous
 62
     7
100
AcDbMText
 10
70555.389687
 20
8141.746334
 30
0.0
 40
775.68
 41
3878.4
 71
     1
 72
     1
  1
\A1;\W1.00;\T1.00;\Q0.00;称
  7
YOKO_MINCHO
 73
     2
 44
0.66
  0
MTEXT
  5
1E7
100
AcDbEntity
  8
作業ﾚｲﾔ1
370
     0
390
0
  6
Continuous
 62
     7
100
AcDbMText
 10
68797.989687
 20
6978.226334
 30
0.0
 40
775.68
 41
3878.4
 71
     1
 72
     1
  1
\A1;\W1.00;\T1.00;\Q0.00;施
  7
YOKO_MINCHO
 73
     2
 44
0.66
  0
MTEXT
  5
1E8
100
AcDbEntity
  8
作業ﾚｲﾔ1
370
     0
390
0
  6
Continuous
 62
     7
100
AcDbMText
 10
69682.749687
 20
6978.226334
 30
0.0
 40
775.68
 41
3878.4
 71
     1
 72
     1
  1
\A1;\W1.00;\T1.00;\Q0.00;工
  7
YOKO_MINCHO
 73
     2
 44
0.66
  0
MTEXT
  5
1E9
100
AcDbEntity
  8
作業ﾚｲﾔ1
370
     0
390
0
  6
Continuous
 62
     7
100
AcDbMText
 10
70543.269687
 20
6978.226334
 30
0.0
 40
775.68
 41
3878.4
 71
     1
 72
     1
  1
\A1;\W1.00;\T1.00;\Q0.00;地
  7
YOKO_MINCHO
 73
     2
 44
0.66
  0
MTEXT
  5
1EA
100
AcDbEntity
  8
作業ﾚｲﾔ1
370
     0
390
0
  6
Continuous
 62
     7
100
AcDbMText
 10
68761.629687
 20
5814.706334
 30
0.0
 40
775.68
 41
12410.88
 71
     1
 72
     1
  1
\A1;\W0.80;\T1.00;\Q0.00;事業細目
  7
YOKO_MINCHO
 73
     2
 44
0.66
  0
MTEXT
  5
1EB
100
AcDbEntity
  8
作業ﾚｲﾔ1
370
     0
390
0
  6
Continuous
 62
     7
100
AcDbMText
 10
68761.629687
 20
4651.186334
 30
0.0
 40
775.68
 41
12410.88
 71
     1
 72
     1
  1
\A1;\W0.80;\T1.00;\Q0.00;事業所名
  7
YOKO_MINCHO
 73
     2
 44
0.66
  0
MTEXT
  5
1EC
100
AcDbEntity
  8
作業ﾚｲﾔ1
370
     0
390
0
  6
Continuous
 62
     7
100
AcDbMText
 10
68761.629687
 20
3487.666334
 30
0.0
 40
775.68
 41
12410.88
 71
     1
 72
     1
  1
\A1;\W0.80;\T1.00;\Q0.00;図面番号
  7
YOKO_MINCHO
 73
     2
 44
0.66
  0
MTEXT
  5
1ED
100
AcDbEntity
  8
作業ﾚｲﾔ1
370
     0
390
0
  6
Continuous
 62
     7
100
AcDbMText
 10
74603.469687
 20
3487.666334
 30
0.0
 40
775.68
 41
3878.4
 71
     1
 72
     1
  1
\A1;\W1.00;\T1.00;\Q0.00;縮
  7
YOKO_MINCHO
 73
     2
 44
0.66
  0
MTEXT
  5
1EE
100
AcDbEntity
  8
作業ﾚｲﾔ1
370
     0
390
0
  6
Continuous
 62
     7
100
AcDbMText
 10
76166.949687
 20
3487.666334
 30
0.0
 40
775.68
 41
3878.4
 71
     1
 72
     1
  1
\A1;\W1.00;\T1.00;\Q0.00;尺
  7
YOKO_MINCHO
 73
     2
 44
0.66
  0
ENDBLK
  5
1EF
100
AcDbEntity
  8
0
390
0
100
AcDbBlockEnd
  0
ENDSEC
  0
SECTION
  2
ENTITIES
  0
POLYLINE
  5
75
100
AcDbEntity
  8
V-nasSTD
390
0
100
AcDb2dPolyline
 66
     1
 10
0.0
 20
0.0
 30
0.0
 70
     1
  0
VERTEX
  5
76
100
AcDbEntity
  8
V-nasSTD
390
0
100
AcDbVertex
100
AcDb2dVertex
 10
0.0
 20
0.0
 30
0.0
  0
VERTEX
  5
77
100
AcDbEntity
  8
V-nasSTD
390
0
100
AcDbVertex
100
AcDb2dVertex
 10
84000.0
 20
0.0
 30
0.0
  0
VERTEX
  5
78
100
AcDbEntity
  8
V-nasSTD
390
0
100
AcDbVertex
100
AcDb2dVertex
 10
84000.0
 20
59400.0
 30
0.0
  0
VERTEX
  5
79
100
AcDbEntity
  8
V-nasSTD
390
0
100
AcDbVertex
100
AcDb2dVertex
 10
0.0
 20
59400.0
 30
0.0
  0
SEQEND
  5
7A
100
AcDbEntity
  8
V-nasSTD
390
0
  0
POLYLINE
  5
7B
100
AcDbEntity
  8
V-nasSTD
390
0
100
AcDb2dPolyline
 66
     1
 10
0.0
 20
0.0
 30
0.0
 70
     1
  0
VERTEX
  5
7C
100
AcDbEntity
  8
V-nasSTD
390
0
100
AcDbVertex
100
AcDb2dVertex
 10
4000.0
 20
4000.0
 30
0.0
  0
VERTEX
  5
7D
100
AcDbEntity
  8
V-nasSTD
390
0
100
AcDbVertex
100
AcDb2dVertex
 10
80000.0
 20
4000.0
 30
0.0
  0
VERTEX
  5
7E
100
AcDbEntity
  8
V-nasSTD
390
0
100
AcDbVertex
100
AcDb2dVertex
 10
80000.0
 20
55400.0
 30
0.0
  0
VERTEX
  5
7F
100
AcDbEntity
  8
V-nasSTD
390
0
100
AcDbVertex
100
AcDb2dVertex
 10
4000.0
 20
55400.0
 30
0.0
  0
SEQEND
  5
80
100
AcDbEntity
  8
V-nasSTD
390
0
  0
POLYLINE
  5
81
100
AcDbEntity
  8
V-nasSTD
390
0
100
AcDb2dPolyline
 66
     1
 10
0.0
 20
0.0
 30
0.0
 70
     1
  0
VERTEX
  5
82
100
AcDbEntity
  8
V-nasSTD
390
0
100
AcDbVertex
100
AcDb2dVertex
 10
-4000.0
 20
-3000.0
 30
0.0
  0
VERTEX
  5
83
100
AcDbEntity
  8
V-nasSTD
390
0
100
AcDbVertex
100
AcDb2dVertex
 10
88000.0
 20
-3000.0
 30
0.0
  0
VERTEX
  5
84
100
AcDbEntity
  8
V-nasSTD
390
0
100
AcDbVertex
100
AcDb2dVertex
 10
88000.0
 20
62400.0
 30
0.0
  0
VERTEX
  5
85
100
AcDbEntity
  8
V-nasSTD
390
0
100
AcDbVertex
100
AcDb2dVertex
 10
-4000.0
 20
62400.0
 30
0.0
  0
SEQEND
  5
86
100
AcDbEntity
  8
V-nasSTD
390
0
  0
POLYLINE
  5
87
100
AcDbEntity
  8
画層0
390
0
  6
Continuous
100
AcDb2dPolyline
 66
     1
 10
0.0
 20
0.0
 30
0.0
 70
     1
  0
VERTEX
  5
88
100
AcDbEntity
  8
画層0
390
0
  6
Continuous
100
AcDbVertex
100
AcDb2dVertex
 10
11216.740053
 20
39977.708246
 30
0.0
  0
VERTEX
  5
89
100
AcDbEntity
  8
画層0
390
0
  6
Continuous
100
AcDbVertex
100
AcDb2dVertex
 10
11216.740053
 20
38927.708246
 30
0.0
  0
VERTEX
  5
8A
100
AcDbEntity
  8
画層0
390
0
  6
Continuous
100
AcDbVertex
100
AcDb2dVertex
 10
32216.740053
 20
38927.708246
 30
0.0
  0
VERTEX
  5
8B
100
AcDbEntity
  8
画層0
390
0
  6
Continuous
100
AcDbVertex
100
AcDb2dVertex
 10
32216.740053
 20
39977.708246
 30
0.0
  0
SEQEND
  5
8C
100
AcDbEntity
  8
画層0
390
0
  6
Continuous
  0
POLYLINE
  5
8D
100
AcDbEntity
  8
画層0
390
0
  6
Continuous
100
AcDb2dPolyline
 66
     1
 10
0.0
 20
0.0
 30
0.0
 70
     1
  0
VERTEX
  5
8E
100
AcDbEntity
  8
画層0
390
0
  6
Continuous
100
AcDbVertex
100
AcDb2dVertex
 10
11216.740053
 20
38927.708246
 30
0.0
  0
VERTEX
  5
8F
100
AcDbEntity
  8
画層0
390
0
  6
Continuous
100
AcDbVertex
100
AcDb2dVertex
 10
11216.740053
 20
37877.708246
 30
0.0
  0
VERTEX
  5
90
100
AcDbEntity
  8
画層0
390
0
  6
Continuous
100
AcDbVertex
100
AcDb2dVertex
 10
32216.740053
 20
37877.708246
 30
0.0
  0
VERTEX
  5
91
100
AcDbEntity
  8
画層0
390
0
  6
Continuous
100
AcDbVertex
100
AcDb2dVertex
 10
32216.740053
 20
38927.708246
 30
0.0
  0
SEQEND
  5
92
100
AcDbEntity
  8
画層0
390
0
  6
Continuous
  0
POLYLINE
  5
93
100
AcDbEntity
  8
画層0
390
0
  6
Continuous
100
AcDb2dPolyline
 66
     1
 10
0.0
 20
0.0
 30
0.0
 70
     1
  0
VERTEX
  5
94
100
AcDbEntity
  8
画層0
390
0
  6
Continuous
100
AcDbVertex
100
AcDb2dVertex
 10
11216.740053
 20
37877.708246
 30
0.0
  0
VERTEX
  5
95
100
AcDbEntity
  8
画層0
390
0
  6
Continuous
100
AcDbVertex
100
AcDb2dVertex
 10
11216.740053
 20
36827.708246
 30
0.0
  0
VERTEX
  5
96
100
AcDbEntity
  8
画層0
390
0
  6
Continuous
100
AcDbVertex
100
AcDb2dVertex
 10
32216.740053
 20
36827.708246
 30
0.0
  0
VERTEX
  5
97
100
AcDbEntity
  8
画層0
390
0
  6
Continuous
100
AcDbVertex
100
AcDb2dVertex
 10
32216.740053
 20
37877.708246
 30
0.0
  0
SEQEND
  5
98
100
AcDbEntity
  8
画層0
390
0
  6
Continuous
  0
POLYLINE
  5
99
100
AcDbEntity
  8
画層0
390
0
  6
Continuous
100
AcDb2dPolyline
 66
     1
 10
0.0
 20
0.0
 30
0.0
 70
     1
  0
VERTEX
  5
9A
100
AcDbEntity
  8
画層0
390
0
  6
Continuous
100
AcDbVertex
100
AcDb2dVertex
 10
11216.740053
 20
36827.708246
 30
0.0
  0
VERTEX
  5
9B
100
AcDbEntity
  8
画層0
390
0
  6
Continuous
100
AcDbVertex
100
AcDb2dVertex
 10
11216.740053
 20
35777.708246
 30
0.0
  0
VERTEX
  5
9C
100
AcDbEntity
  8
画層0
390
0
  6
Continuous
100
AcDbVertex
100
AcDb2dVertex
 10
32216.740053
 20
35777.708246
 30
0.0
  0
VERTEX
  5
9D
100
AcDbEntity
  8
画層0
390
0
  6
Continuous
100
AcDbVertex
100
AcDb2dVertex
 10
32216.740053
 20
36827.708246
 30
0.0
  0
SEQEND
  5
9E
100
AcDbEntity
  8
画層0
390
0
  6
Continuous
  0
POLYLINE
  5
9F
100
AcDbEntity
  8
画層0
390
0
  6
Continuous
100
AcDb2dPolyline
 66
     1
 10
0.0
 20
0.0
 30
0.0
 70
     1
  0
VERTEX
  5
A0
100
AcDbEntity
  8
画層0
390
0
  6
Continuous
100
AcDbVertex
100
AcDb2dVertex
 10
11216.740053
 20
35777.708246
 30
0.0
  0
VERTEX
  5
A1
100
AcDbEntity
  8
画層0
390
0
  6
Continuous
100
AcDbVertex
100
AcDb2dVertex
 10
11216.740053
 20
34727.708246
 30
0.0
  0
VERTEX
  5
A2
100
AcDbEntity
  8
画層0
390
0
  6
Continuous
100
AcDbVertex
100
AcDb2dVertex
 10
32216.740053
 20
34727.708246
 30
0.0
  0
VERTEX
  5
A3
100
AcDbEntity
  8
画層0
390
0
  6
Continuous
100
AcDbVertex
100
AcDb2dVertex
 10
32216.740053
 20
35777.708246
 30
0.0
  0
SEQEND
  5
A4
100
AcDbEntity
  8
画層0
390
0
  6
Continuous
  0
POLYLINE
  5
A5
100
AcDbEntity
  8
画層0
390
0
  6
Continuous
100
AcDb2dPolyline
 66
     1
 10
0.0
 20
0.0
 30
0.0
 70
     1
  0
VERTEX
  5
A6
100
AcDbEntity
  8
画層0
390
0
  6
Continuous
100
AcDbVertex
100
AcDb2dVertex
 10
11216.740053
 20
34727.708246
 30
0.0
  0
VERTEX
  5
A7
100
AcDbEntity
  8
画層0
390
0
  6
Continuous
100
AcDbVertex
100
AcDb2dVertex
 10
11216.740053
 20
33677.708246
 30
0.0
  0
VERTEX
  5
A8
100
AcDbEntity
  8
画層0
390
0
  6
Continuous
100
AcDbVertex
100
AcDb2dVertex
 10
32216.740053
 20
33677.708246
 30
0.0
  0
VERTEX
  5
A9
100
AcDbEntity
  8
画層0
390
0
  6
Continuous
100
AcDbVertex
100
AcDb2dVertex
 10
32216.740053
 20
34727.708246
 30
0.0
  0
SEQEND
  5
AA
100
AcDbEntity
  8
画層0
390
0
  6
Continuous
  0
POLYLINE
  5
AB
100
AcDbEntity
  8
画層0
390
0
  6
Continuous
100
AcDb2dPolyline
 66
     1
 10
0.0
 20
0.0
 30
0.0
 70
     1
  0
VERTEX
  5
AC
100
AcDbEntity
  8
画層0
390
0
  6
Continuous
100
AcDbVertex
100
AcDb2dVertex
 10
11216.740053
 20
33677.708246
 30
0.0
  0
VERTEX
  5
AD
100
AcDbEntity
  8
画層0
390
0
  6
Continuous
100
AcDbVertex
100
AcDb2dVertex
 10
11216.740053
 20
32627.708246
 30
0.0
  0
VERTEX
  5
AE
100
AcDbEntity
  8
画層0
390
0
  6
Continuous
100
AcDbVertex
100
AcDb2dVertex
 10
32216.740053
 20
32627.708246
 30
0.0
  0
VERTEX
  5
AF
100
AcDbEntity
  8
画層0
390
0
  6
Continuous
100
AcDbVertex
100
AcDb2dVertex
 10
32216.740053
 20
33677.708246
 30
0.0
  0
SEQEND
  5
B0
100
AcDbEntity
  8
画層0
390
0
  6
Continuous
  0
POLYLINE
  5
B1
100
AcDbEntity
  8
画層0
390
0
  6
Continuous
100
AcDb2dPolyline
 66
     1
 10
0.0
 20
0.0
 30
0.0
 70
     1
  0
VERTEX
  5
B2
100
AcDbEntity
  8
画層0
390
0
  6
Continuous
100
AcDbVertex
100
AcDb2dVertex
 10
11216.740053
 20
32627.708246
 30
0.0
  0
VERTEX
  5
B3
100
AcDbEntity
  8
画層0
390
0
  6
Continuous
100
AcDbVertex
100
AcDb2dVertex
 10
11216.740053
 20
31577.708246
 30
0.0
  0
VERTEX
  5
B4
100
AcDbEntity
  8
画層0
390
0
  6
Continuous
100
AcDbVertex
100
AcDb2dVertex
 10
32216.740053
 20
31577.708246
 30
0.0
  0
VERTEX
  5
B5
100
AcDbEntity
  8
画層0
390
0
  6
Continuous
100
AcDbVertex
100
AcDb2dVertex
 10
32216.740053
 20
32627.708246
 30
0.0
  0
SEQEND
  5
B6
100
AcDbEntity
  8
画層0
390
0
  6
Continuous
  0
POLYLINE
  5
B7
100
AcDbEntity
  8
画層0
390
0
  6
Continuous
100
AcDb2dPolyline
 66
     1
 10
0.0
 20
0.0
 30
0.0
 70
     1
  0
VERTEX
  5
B8
100
AcDbEntity
  8
画層0
390
0
  6
Continuous
100
AcDbVertex
100
AcDb2dVertex
 10
11216.740053
 20
31577.708246
 30
0.0
  0
VERTEX
  5
B9
100
AcDbEntity
  8
画層0
390
0
  6
Continuous
100
AcDbVertex
100
AcDb2dVertex
 10
11216.740053
 20
30527.708246
 30
0.0
  0
VERTEX
  5
BA
100
AcDbEntity
  8
画層0
390
0
  6
Continuous
100
AcDbVertex
100
AcDb2dVertex
 10
32216.740053
 20
30527.708246
 30
0.0
  0
VERTEX
  5
BB
100
AcDbEntity
  8
画層0
390
0
  6
Continuous
100
AcDbVertex
100
AcDb2dVertex
 10
32216.740053
 20
31577.708246
 30
0.0
  0
SEQEND
  5
BC
100
AcDbEntity
  8
画層0
390
0
  6
Continuous
  0
POLYLINE
  5
BD
100
AcDbEntity
  8
画層0
390
0
  6
Continuous
100
AcDb2dPolyline
 66
     1
 10
0.0
 20
0.0
 30
0.0
 70
     1
  0
VERTEX
  5
BE
100
AcDbEntity
  8
画層0
390
0
  6
Continuous
100
AcDbVertex
100
AcDb2dVertex
 10
11216.740053
 20
30527.708246
 30
0.0
  0
VERTEX
  5
BF
100
AcDbEntity
  8
画層0
390
0
  6
Continuous
100
AcDbVertex
100
AcDb2dVertex
 10
11216.740053
 20
29477.708246
 30
0.0
  0
VERTEX
  5
C0
100
AcDbEntity
  8
画層0
390
0
  6
Continuous
100
AcDbVertex
100
AcDb2dVertex
 10
32216.740053
 20
29477.708246
 30
0.0
  0
VERTEX
  5
C1
100
AcDbEntity
  8
画層0
390
0
  6
Continuous
100
AcDbVertex
100
AcDb2dVertex
 10
32216.740053
 20
30527.708246
 30
0.0
  0
SEQEND
  5
C2
100
AcDbEntity
  8
画層0
390
0
  6
Continuous
  0
LINE
  5
C3
100
AcDbEntity
  8
画層0
390
0
  6
Continuous
100
AcDbLine
 10
11216.740053
 20
40592.938846
 30
0.0
 11
11216.740053
 21
41692.938846
 31
0.0
  0
LINE
  5
C4
100
AcDbEntity
  8
画層0
390
0
  6
Continuous
100
AcDbLine
 10
11216.740053
 20
41592.938846
 30
0.0
 11
32216.740053
 21
41592.938846
 31
0.0
  0
CIRCLE
  5
C5
100
AcDbEntity
  8
画層0
390
0
  6
Continuous
100
AcDbCircle
 10
11216.740053
 20
41592.938846
 30
0.0
 40
50.0
  0
CIRCLE
  5
C6
100
AcDbEntity
  8
画層0
390
0
  6
Continuous
100
AcDbCircle
 10
32216.740053
 20
41592.938846
 30
0.0
 40
50.0
  0
MTEXT
  5
C7
100
AcDbEntity
  8
画層0
390
0
  6
Continuous
 62
     7
100
AcDbMText
 10
21716.740053
 20
42242.938846
 30
0.0
 40
600.0
 41
18000.0
 71
     2
 72
     1
  1
\A1;\W1.00;\T1.00;\Q0.00;2100mm
  7
YOKO
 73
     2
 44
0.66
  0
LINE
  5
C8
100
AcDbEntity
  8
画層0
390
0
  6
Continuous
100
AcDbLine
 10
32216.740053
 20
40592.938846
 30
0.0
 11
32216.740053
 21
41692.938846
 31
0.0
  0
LINE
  5
C9
100
AcDbEntity
  8
画層0
390
0
  6
Continuous
100
AcDbLine
 10
32962.643653
 20
39977.708246
 30
0.0
 11
34062.643653
 21
39977.708246
 31
0.0
  0
LINE
  5
CA
100
AcDbEntity
  8
画層0
390
0
  6
Continuous
100
AcDbLine
 10
33962.643653
 20
39977.708246
 30
0.0
 11
33962.643653
 21
38927.708246
 31
0.0
  0
CIRCLE
  5
CB
100
AcDbEntity
  8
画層0
390
0
  6
Continuous
100
AcDbCircle
 10
33962.643653
 20
39977.708246
 30
0.0
 40
50.0
  0
CIRCLE
  5
CC
100
AcDbEntity
  8
画層0
390
0
  6
Continuous
100
AcDbCircle
 10
33962.643653
 20
38927.708246
 30
0.0
 40
50.0
  0
MTEXT
  5
CD
100
AcDbEntity
  8
画層0
390
0
  6
Continuous
 62
     7
100
AcDbMText
 10
33312.643653
 20
39452.708246
 30
0.0
 40
600.0
 41
15000.0
 71
     2
 72
     1
  1
\A1;\W1.00;\T1.00;\Q0.00;105mm
  7
YOKO
 11
0.0
 21
1.0
 31
0.0
 73
     2
 44
0.66
  0
LINE
  5
CE
100
AcDbEntity
  8
画層0
390
0
  6
Continuous
100
AcDbLine
 10
32962.643653
 20
38927.708246
 30
0.0
 11
34062.643653
 21
38927.708246
 31
0.0
  0
LINE
  5
CF
100
AcDbEntity
  8
画層0
390
0
  6
Continuous
100
AcDbLine
 10
34720.072653
 20
39977.708246
 30
0.0
 11
35820.072653
 21
39977.708246
 31
0.0
  0
LINE
  5
D0
100
AcDbEntity
  8
画層0
390
0
  6
Continuous
100
AcDbLine
 10
35720.072653
 20
39977.708246
 30
0.0
 11
35720.072653
 21
29477.708246
 31
0.0
  0
CIRCLE
  5
D1
100
AcDbEntity
  8
画層0
390
0
  6
Continuous
100
AcDbCircle
 10
35720.072653
 20
39977.708246
 30
0.0
 40
50.0
  0
CIRCLE
  5
D2
100
AcDbEntity
  8
画層0
390
0
  6
Continuous
100
AcDbCircle
 10
35720.072653
 20
29477.708246
 30
0.0
 40
50.0
  0
MTEXT
  5
D3
100
AcDbEntity
  8
画層0
390
0
  6
Continuous
 62
     7
100
AcDbMText
 10
35070.072653
 20
34727.708246
 30
0.0
 40
600.0
 41
18000.0
 71
     2
 72
     1
  1
\A1;\W1.00;\T1.00;\Q0.00;1050mm
  7
YOKO
 11
0.0
 21
1.0
 31
0.0
 73
     2
 44
0.66
  0
LINE
  5
D4
100
AcDbEntity
  8
画層0
390
0
  6
Continuous
100
AcDbLine
 10
34720.072653
 20
29477.708246
 30
0.0
 11
35820.072653
 21
29477.708246
 31
0.0
  0
LINE
  5
D5
100
AcDbEntity
  8
画層0
390
0
  6
Continuous
100
AcDbLine
 10
31166.740053
 20
26669.566246
 30
0.0
 11
31166.740053
 21
25569.566246
 31
0.0
  0
LINE
  5
D6
100
AcDbEntity
  8
画層0
390
0
  6
Continuous
100
AcDbLine
 10
31166.740053
 20
25669.566246
 30
0.0
 11
32216.740053
 21
25669.566246
 31
0.0
  0
CIRCLE
  5
D7
100
AcDbEntity
  8
画層0
390
0
  6
Continuous
100
AcDbCircle
 10
31166.740053
 20
25669.566246
 30
0.0
 40
50.0
  0
CIRCLE
  5
D8
100
AcDbEntity
  8
画層0
390
0
  6
Continuous
100
AcDbCircle
 10
32216.740053
 20
25669.566246
 30
0.0
 40
50.0
  0
MTEXT
  5
D9
100
AcDbEntity
  8
画層0
390
0
  6
Continuous
 62
     7
100
AcDbMText
 10
31691.740053
 20
26319.566246
 30
0.0
 40
600.0
 41
15000.0
 71
     2
 72
     1
  1
\A1;\W1.00;\T1.00;\Q0.00;105mm
  7
YOKO
 73
     2
 44
0.66
  0
LINE
  5
DA
100
AcDbEntity
  8
画層0
390
0
  6
Continuous
100
AcDbLine
 10
32216.740053
 20
26669.566246
 30
0.0
 11
32216.740053
 21
25569.566246
 31
0.0
  0
LINE
  5
DB
100
AcDbEntity
  8
画層0
390
0
  6
Continuous
100
AcDbLine
 10
22267.908853
 20
26616.310646
 30
0.0
 11
22267.908853
 21
25516.310646
 31
0.0
  0
LINE
  5
DC
100
AcDbEntity
  8
画層0
390
0
  6
Continuous
100
AcDbLine
 10
22267.908853
 20
25616.310646
 30
0.0
 11
23315.908853
 21
25616.310646
 31
0.0
  0
CIRCLE
  5
DD
100
AcDbEntity
  8
画層0
390
0
  6
Continuous
100
AcDbCircle
 10
22267.908853
 20
25616.310646
 30
0.0
 40
50.0
  0
CIRCLE
  5
DE
100
AcDbEntity
  8
画層0
390
0
  6
Continuous
100
AcDbCircle
 10
23315.908853
 20
25616.310646
 30
0.0
 40
50.0
  0
MTEXT
  5
DF
100
AcDbEntity
  8
画層0
390
0
  6
Continuous
 62
     7
100
AcDbMText
 10
22791.908853
 20
26266.310646
 30
0.0
 40
600.0
 41
15000.0
 71
     2
 72
     1
  1
\A1;\W1.00;\T1.00;\Q0.00;105mm
  7
YOKO
 73
     2
 44
0.66
  0
LINE
  5
E0
100
AcDbEntity
  8
画層0
390
0
  6
Continuous
100
AcDbLine
 10
23315.908853
 20
26616.310646
 30
0.0
 11
23315.908853
 21
25516.310646
 31
0.0
  0
LINE
  5
E1
100
AcDbEntity
  8
画層0
390
0
  6
Continuous
100
AcDbLine
 10
12266.740053
 20
24486.093646
 30
0.0
 11
12266.740053
 21
23386.093646
 31
0.0
  0
LINE
  5
E2
100
AcDbEntity
  8
画層0
390
0
  6
Continuous
100
AcDbLine
 10
12266.740053
 20
23486.093646
 30
0.0
 11
31166.740053
 21
23486.093646
 31
0.0
  0
CIRCLE
  5
E3
100
AcDbEntity
  8
画層0
390
0
  6
Continuous
100
AcDbCircle
 10
12266.740053
 20
23486.093646
 30
0.0
 40
50.0
  0
CIRCLE
  5
E4
100
AcDbEntity
  8
画層0
390
0
  6
Continuous
100
AcDbCircle
 10
31166.740053
 20
23486.093646
 30
0.0
 40
50.0
  0
MTEXT
  5
E5
100
AcDbEntity
  8
画層0
390
0
  6
Continuous
 62
     7
100
AcDbMText
 10
21716.740053
 20
24136.093646
 30
0.0
 40
600.0
 41
18000.0
 71
     2
 72
     1
  1
\A1;\W1.00;\T1.00;\Q0.00;1890mm
  7
YOKO
 73
     2
 44
0.66
  0
LINE
  5
E6
100
AcDbEntity
  8
画層0
390
0
  6
Continuous
100
AcDbLine
 10
31166.740053
 20
24486.093646
 30
0.0
 11
31166.740053
 21
23386.093646
 31
0.0
  0
CIRCLE
  5
E7
100
AcDbEntity
  8
画層0
390
0
  6
Continuous
100
AcDbCircle
 10
51103.164853
 20
21461.594646
 30
0.0
 40
534.0
  0
CIRCLE
  5
E8
100
AcDbEntity
  8
画層0
390
0
  6
Continuous
100
AcDbCircle
 10
50802.364853
 20
20416.794646
 30
0.0
 40
534.0
  0
CIRCLE
  5
E9
100
AcDbEntity
  8
画層0
390
0
  6
Continuous
100
AcDbCircle
 10
50504.364853
 20
19371.994646
 30
0.0
 40
534.0
  0
CIRCLE
  5
EA
100
AcDbEntity
  8
画層0
390
0
  6
Continuous
100
AcDbCircle
 10
50206.764853
 20
18327.194646
 30
0.0
 40
534.0
  0
CIRCLE
  5
EB
100
AcDbEntity
  8
画層0
390
0
  6
Continuous
100
AcDbCircle
 10
49911.964853
 20
17282.394646
 30
0.0
 40
534.0
  0
CIRCLE
  5
EC
100
AcDbEntity
  8
画層0
390
0
  6
Continuous
100
AcDbCircle
 10
49611.164853
 20
16240.794646
 30
0.0
 40
534.0
  0
CIRCLE
  5
ED
100
AcDbEntity
  8
画層0
390
0
  6
Continuous
100
AcDbCircle
 10
49313.164853
 20
15193.594646
 30
0.0
 40
534.0
  0
CIRCLE
  5
EE
100
AcDbEntity
  8
画層0
390
0
  6
Continuous
100
AcDbCircle
 10
49015.564853
 20
14148.794646
 30
0.0
 40
534.0
  0
CIRCLE
  5
EF
100
AcDbEntity
  8
画層0
390
0
  6
Continuous
100
AcDbCircle
 10
48717.564853
 20
13104.794646
 30
0.0
 40
534.0
  0
CIRCLE
  5
F0
100
AcDbEntity
  8
画層0
390
0
  6
Continuous
100
AcDbCircle
 10
48419.964853
 20
12059.994646
 30
0.0
 40
534.0
  0
CIRCLE
  5
F1
100
AcDbEntity
  8
画層0
390
0
  6
Continuous
100
AcDbCircle
 10
58157.564853
 20
9945.140446
 30
0.0
 40
524.0002
  0
POLYLINE
  5
F2
100
AcDbEntity
  8
画層0
390
0
  6
Continuous
100
AcDb2dPolyline
 66
     1
 10
0.0
 20
0.0
 30
0.0
 70
     1
  0
VERTEX
  5
F3
100
AcDbEntity
  8
画層0
390
0
  6
Continuous
100
AcDbVertex
100
AcDb2dVertex
 10
52839.147853
 20
21730.737446
 30
0.0
  0
VERTEX
  5
F4
100
AcDbEntity
  8
画層0
390
0
  6
Continuous
100
AcDbVertex
100
AcDb2dVertex
 10
51829.319653
 20
22018.394646
 30
0.0
  0
VERTEX
  5
F5
100
AcDbEntity
  8
画層0
390
0
  6
Continuous
100
AcDbVertex
100
AcDb2dVertex
 10
48322.641653
 20
9708.106046
 30
0.0
  0
VERTEX
  5
F6
100
AcDbEntity
  8
画層0
390
0
  6
Continuous
100
AcDbVertex
100
AcDb2dVertex
 10
49332.469853
 20
9420.448846
 30
0.0
  0
SEQEND
  5
F7
100
AcDbEntity
  8
画層0
390
0
  6
Continuous
  0
POLYLINE
  5
F8
100
AcDbEntity
  8
画層0
390
0
  6
Continuous
100
AcDb2dPolyline
 66
     1
 10
0.0
 20
0.0
 30
0.0
 70
     1
  0
VERTEX
  5
F9
100
AcDbEntity
  8
画層0
390
0
  6
Continuous
100
AcDbVertex
100
AcDb2dVertex
 10
52511.260053
 20
21811.056446
 30
0.0
  0
VERTEX
  5
FA
100
AcDbEntity
  8
画層0
390
0
  6
Continuous
100
AcDbVertex
100
AcDb2dVertex
 10
51625.699053
 20
21246.891846
 30
0.0
  0
VERTEX
  5
FB
100
AcDbEntity
  8
画層0
390
0
  6
Continuous
100
AcDbVertex
100
AcDb2dVertex
 10
58879.243853
 20
9861.107246
 30
0.0
  0
VERTEX
  5
FC
100
AcDbEntity
  8
画層0
390
0
  6
Continuous
100
AcDbVertex
100
AcDb2dVertex
 10
59764.804853
 20
10425.271846
 30
0.0
  0
SEQEND
  5
FD
100
AcDbEntity
  8
画層0
390
0
  6
Continuous
  0
LINE
  5
FE
100
AcDbEntity
  8
画層0
390
0
  6
Continuous
100
AcDbLine
 10
43583.675453
 20
22018.394646
 30
0.0
 11
42483.675453
 21
22018.394646
 31
0.0
  0
LINE
  5
FF
100
AcDbEntity
  8
画層0
390
0
  6
Continuous
100
AcDbLine
 10
42583.675453
 20
22018.394646
 30
0.0
 11
42583.675453
 21
11518.394646
 31
0.0
  0
CIRCLE
  5
100
100
AcDbEntity
  8
画層0
390
0
  6
Continuous
100
AcDbCircle
 10
42583.675453
 20
22018.394646
 30
0.0
 40
50.0
  0
CIRCLE
  5
101
100
AcDbEntity
  8
画層0
390
0
  6
Continuous
100
AcDbCircle
 10
42583.675453
 20
11518.394646
 30
0.0
 40
50.0
  0
MTEXT
  5
102
100
AcDbEntity
  8
画層0
390
0
  6
Continuous
 62
     7
100
AcDbMText
 10
41933.675453
 20
16768.394646
 30
0.0
 40
600.0
 41
18000.0
 71
     2
 72
     1
  1
\A1;\W1.00;\T1.00;\Q0.00;1050mm
  7
YOKO
 11
0.0
 21
1.0
 31
0.0
 73
     2
 44
0.66
  0
LINE
  5
103
100
AcDbEntity
  8
画層0
390
0
  6
Continuous
100
AcDbLine
 10
43583.675453
 20
11518.394646
 30
0.0
 11
42483.675453
 21
11518.394646
 31
0.0
  0
LINE
  5
104
100
AcDbEntity
  8
画層0
390
0
  6
Continuous
100
AcDbLine
 10
47930.800453
 20
23128.917046
 30
0.0
 11
46872.885053
 21
23430.272246
 31
0.0
  0
LINE
  5
105
100
AcDbEntity
  8
画層0
390
0
  6
Continuous
100
AcDbLine
 10
46969.059253
 20
23402.876246
 30
0.0
 11
43462.381253
 21
11092.587446
 31
0.0
  0
CIRCLE
  5
106
100
AcDbEntity
  8
画層0
390
0
  6
Continuous
100
AcDbCircle
 10
46969.059253
 20
23402.876246
 30
0.0
 40
50.0
  0
CIRCLE
  5
107
100
AcDbEntity
  8
画層0
390
0
  6
Continuous
100
AcDbCircle
 10
43462.381253
 20
11092.587446
 30
0.0
 40
50.0
  0
MTEXT
  5
108
100
AcDbEntity
  8
画層0
390
0
  6
Continuous
 62
     7
100
AcDbMText
 10
44590.588253
 20
17425.805446
 30
0.0
 40
600.0
 41
18000.0
 71
     2
 72
     1
  1
\A1;\W1.00;\T1.00;\Q0.00;1280mm
  7
YOKO
 11
0.273959
 21
0.961741
 31
0.0
 73
     2
 44
0.66
  0
LINE
  5
109
100
AcDbEntity
  8
画層0
390
0
  6
Continuous
100
AcDbLine
 10
44424.122453
 20
10818.628246
 30
0.0
 11
43366.207053
 21
11119.983446
 31
0.0
  0
LINE
  5
10A
100
AcDbEntity
  8
画層0
390
0
  6
Continuous
100
AcDbLine
 10
47684.764853
 20
23020.959246
 30
0.0
 11
47684.764853
 21
24120.959246
 31
0.0
  0
LINE
  5
10B
100
AcDbEntity
  8
画層0
390
0
  6
Continuous
100
AcDbLine
 10
47684.764853
 20
24020.959246
 30
0.0
 11
50684.764853
 21
24020.959246
 31
0.0
  0
CIRCLE
  5
10C
100
AcDbEntity
  8
画層0
390
0
  6
Continuous
100
AcDbCircle
 10
47684.764853
 20
24020.959246
 30
0.0
 40
50.0
  0
CIRCLE
  5
10D
100
AcDbEntity
  8
画層0
390
0
  6
Continuous
100
AcDbCircle
 10
50684.764853
 20
24020.959246
 30
0.0
 40
50.0
  0
MTEXT
  5
10E
100
AcDbEntity
  8
画層0
390
0
  6
Continuous
 62
     7
100
AcDbMText
 10
49184.764853
 20
24670.959246
 30
0.0
 40
600.0
 41
15000.0
 71
     2
 72
     1
  1
\A1;\W1.00;\T1.00;\Q0.00;300mm
  7
YOKO
 73
     2
 44
0.66
  0
LINE
  5
10F
100
AcDbEntity
  8
画層0
390
0
  6
Continuous
100
AcDbLine
 10
50684.764853
 20
23020.959246
 30
0.0
 11
50684.764853
 21
24120.959246
 31
0.0
  0
LINE
  5
110
100
AcDbEntity
  8
画層0
390
0
  6
Continuous
100
AcDbLine
 10
55695.969053
 20
23839.939646
 30
0.0
 11
56623.699653
 21
24430.969246
 31
0.0
  0
LINE
  5
111
100
AcDbEntity
  8
画層0
390
0
  6
Continuous
100
AcDbLine
 10
56539.360453
 20
24377.239246
 30
0.0
 11
63792.905253
 21
12991.454846
 31
0.0
  0
CIRCLE
  5
112
100
AcDbEntity
  8
画層0
390
0
  6
Continuous
100
AcDbCircle
 10
56539.360453
 20
24377.239246
 30
0.0
 40
50.0
  0
CIRCLE
  5
113
100
AcDbEntity
  8
画層0
390
0
  6
Continuous
100
AcDbCircle
 10
63792.905253
 20
12991.454846
 30
0.0
 40
50.0
  0
MTEXT
  5
114
100
AcDbEntity
  8
画層0
390
0
  6
Continuous
 62
     7
100
AcDbMText
 10
60714.337253
 20
19033.591846
 30
0.0
 40
600.0
 41
18000.0
 71
     2
 72
     1
  1
\A1;\W1.00;\T1.00;\Q0.00;1350mm
  7
YOKO
 11
0.5373
 21
-0.843391
 31
0.0
 73
     2
 44
0.66
  0
LINE
  5
115
100
AcDbEntity
  8
画層0
390
0
  6
Continuous
100
AcDbLine
 10
62949.513653
 20
12454.155246
 30
0.0
 11
63877.244253
 21
13045.184846
 31
0.0
  0
LINE
  5
116
100
AcDbEntity
  8
画層0
390
0
  6
Continuous
100
AcDbLine
 10
60304.230253
 20
11518.394646
 30
0.0
 11
61404.230253
 21
11518.394646
 31
0.0
  0
LINE
  5
117
100
AcDbEntity
  8
画層0
390
0
  6
Continuous
100
AcDbLine
 10
61304.230253
 20
11518.394646
 30
0.0
 11
61304.230253
 21
10468.394646
 31
0.0
  0
CIRCLE
  5
118
100
AcDbEntity
  8
画層0
390
0
  6
Continuous
100
AcDbCircle
 10
61304.230253
 20
11518.394646
 30
0.0
 40
50.0
  0
CIRCLE
  5
119
100
AcDbEntity
  8
画層0
390
0
  6
Continuous
100
AcDbCircle
 10
61304.230253
 20
10468.394646
 30
0.0
 40
50.0
  0
MTEXT
  5
11A
100
AcDbEntity
  8
画層0
390
0
  6
Continuous
 62
     7
100
AcDbMText
 10
60654.230253
 20
10993.394646
 30
0.0
 40
600.0
 41
15000.0
 71
     2
 72
     1
  1
\A1;\W1.00;\T1.00;\Q0.00;105mm
  7
YOKO
 11
0.0
 21
1.0
 31
0.0
 73
     2
 44
0.66
  0
LINE
  5
11B
100
AcDbEntity
  8
画層0
390
0
  6
Continuous
100
AcDbLine
 10
60304.230253
 20
10468.394646
 30
0.0
 11
61404.230253
 21
10468.394646
 31
0.0
  0
LINE
  5
11C
100
AcDbEntity
  8
画層0
390
0
  6
Continuous
100
AcDbLine
 10
59062.170453
 20
9573.970046
 30
0.0
 11
59653.200053
 21
8646.239446
 31
0.0
  0
LINE
  5
11D
100
AcDbEntity
  8
画層0
390
0
  6
Continuous
100
AcDbLine
 10
59599.470053
 20
8730.578446
 30
0.0
 11
60485.031053
 21
9294.743046
 31
0.0
  0
CIRCLE
  5
11E
100
AcDbEntity
  8
画層0
390
0
  6
Continuous
100
AcDbCircle
 10
59599.470053
 20
8730.578446
 30
0.0
 40
50.0
  0
CIRCLE
  5
11F
100
AcDbEntity
  8
画層0
390
0
  6
Continuous
100
AcDbCircle
 10
60485.031053
 20
9294.743046
 30
0.0
 40
50.0
  0
MTEXT
  5
120
100
AcDbEntity
  8
画層0
390
0
  6
Continuous
 62
     7
100
AcDbMText
 10
59693.005853
 20
9560.865246
 30
0.0
 40
600.0
 41
15000.0
 71
     2
 72
     1
  1
\A1;\W1.00;\T1.00;\Q0.00;105mm
  7
YOKO
 11
0.843391
 21
0.5373
 31
0.0
 73
     2
 44
0.66
  0
LINE
  5
121
100
AcDbEntity
  8
画層0
390
0
  6
Continuous
100
AcDbLine
 10
59947.731453
 20
10138.134646
 30
0.0
 11
60538.761053
 21
9210.404046
 31
0.0
  0
LINE
  5
122
100
AcDbEntity
  8
画層0
390
0
  6
Continuous
100
AcDbLine
 10
57633.564853
 20
8659.081046
 30
0.0
 11
57633.564853
 21
7559.081046
 31
0.0
  0
LINE
  5
123
100
AcDbEntity
  8
画層0
390
0
  6
Continuous
100
AcDbLine
 10
57633.564853
 20
7659.081046
 30
0.0
 11
58681.564853
 21
7659.081046
 31
0.0
  0
CIRCLE
  5
124
100
AcDbEntity
  8
画層0
390
0
  6
Continuous
100
AcDbCircle
 10
57633.564853
 20
7659.081046
 30
0.0
 40
50.0
  0
CIRCLE
  5
125
100
AcDbEntity
  8
画層0
390
0
  6
Continuous
100
AcDbCircle
 10
58681.564853
 20
7659.081046
 30
0.0
 40
50.0
  0
MTEXT
  5
126
100
AcDbEntity
  8
画層0
390
0
  6
Continuous
 62
     7
100
AcDbMText
 10
58157.564853
 20
8309.081046
 30
0.0
 40
600.0
 41
15000.0
 71
     2
 72
     1
  1
\A1;\W1.00;\T1.00;\Q0.00;105mm
  7
YOKO
 73
     2
 44
0.66
  0
LINE
  5
127
100
AcDbEntity
  8
画層0
390
0
  6
Continuous
100
AcDbLine
 10
58681.564853
 20
8659.081046
 30
0.0
 11
58681.564853
 21
7559.081046
 31
0.0
  0
POLYLINE
  5
128
100
AcDbEntity
  8
画層0
390
0
  6
Continuous
100
AcDb2dPolyline
 66
     1
 10
0.0
 20
0.0
 30
0.0
 70
     1
  0
VERTEX
  5
129
100
AcDbEntity
  8
画層0
390
0
  6
Continuous
100
AcDbVertex
100
AcDb2dVertex
 10
11216.740053
 20
7888.257046
 30
0.0
  0
VERTEX
  5
12A
100
AcDbEntity
  8
画層0
390
0
  6
Continuous
100
AcDbVertex
100
AcDb2dVertex
 10
11216.740053
 20
6838.257046
 30
0.0
  0
VERTEX
  5
12B
100
AcDbEntity
  8
画層0
390
0
  6
Continuous
100
AcDbVertex
100
AcDb2dVertex
 10
32216.740053
 20
6838.257046
 30
0.0
  0
VERTEX
  5
12C
100
AcDbEntity
  8
画層0
390
0
  6
Continuous
100
AcDbVertex
100
AcDb2dVertex
 10
32216.740053
 20
7888.257046
 30
0.0
  0
SEQEND
  5
12D
100
AcDbEntity
  8
画層0
390
0
  6
Continuous
  0
CIRCLE
  5
12E
100
AcDbEntity
  8
画層0
390
0
  6
Continuous
100
AcDbCircle
 10
12789.164853
 20
28953.708246
 30
0.0
 40
524.0002
  0
CIRCLE
  5
12F
100
AcDbEntity
  8
画層0
390
0
  6
Continuous
100
AcDbCircle
 10
22763.165053
 20
28953.708246
 30
0.0
 40
524.0002
  0
CIRCLE
  5
130
100
AcDbEntity
  8
画層0
390
0
  6
Continuous
100
AcDbCircle
 10
30640.365053
 20
28950.508246
 30
0.0
 40
524.0002
  0
CIRCLE
  5
131
100
AcDbEntity
  8
画層0
390
0
  6
Continuous
100
AcDbCircle
 10
11738.765053
 20
8416.476846
 30
0.0
 40
524.0002
  0
CIRCLE
  5
132
100
AcDbEntity
  8
画層0
390
0
  6
Continuous
100
AcDbCircle
 10
21717.819653
 20
8415.911646
 30
0.0
 40
524.0002
  0
CIRCLE
  5
133
100
AcDbEntity
  8
画層0
390
0
  6
Continuous
100
AcDbCircle
 10
31687.165053
 20
8415.911646
 30
0.0
 40
524.0002
  0
LINE
  5
134
100
AcDbEntity
  8
画層0
390
0
  6
Continuous
100
AcDbLine
 10
22241.740053
 20
6386.996046
 30
0.0
 11
22241.740053
 21
5286.996046
 31
0.0
  0
LINE
  5
135
100
AcDbEntity
  8
画層0
390
0
  6
Continuous
100
AcDbLine
 10
22241.740053
 20
5386.996046
 30
0.0
 11
23291.740053
 21
5386.996046
 31
0.0
  0
CIRCLE
  5
136
100
AcDbEntity
  8
画層0
390
0
  6
Continuous
100
AcDbCircle
 10
22241.740053
 20
5386.996046
 30
0.0
 40
50.0
  0
CIRCLE
  5
137
100
AcDbEntity
  8
画層0
390
0
  6
Continuous
100
AcDbCircle
 10
23291.740053
 20
5386.996046
 30
0.0
 40
50.0
  0
MTEXT
  5
138
100
AcDbEntity
  8
画層0
390
0
  6
Continuous
 62
     7
100
AcDbMText
 10
22766.740053
 20
6036.996046
 30
0.0
 40
600.0
 41
15000.0
 71
     2
 72
     1
  1
\A1;\W1.00;\T1.00;\Q0.00;105mm
  7
YOKO
 73
     2
 44
0.66
  0
LINE
  5
139
100
AcDbEntity
  8
画層0
390
0
  6
Continuous
100
AcDbLine
 10
23291.740053
 20
6386.996046
 30
0.0
 11
23291.740053
 21
5286.996046
 31
0.0
  0
LINE
  5
13A
100
AcDbEntity
  8
画層0
390
0
  6
Continuous
100
AcDbLine
 10
47684.764853
 20
11518.394646
 30
0.0
 11
51158.851053
 21
11518.394646
 31
0.0
  0
LINE
  5
13B
100
AcDbEntity
  8
画層0
390
0
  6
Continuous
100
AcDbLine
 10
49332.469853
 20
9420.448846
 30
0.0
 11
50266.717253
 21
12700.149246
 31
0.0
  0
LINE
  5
13C
100
AcDbEntity
  8
画層0
390
0
  6
Continuous
100
AcDbLine
 10
50158.326053
 20
20066.488846
 30
0.0
 11
49100.512253
 21
20368.200646
 31
0.0
  0
LINE
  5
13D
100
AcDbEntity
  8
画層0
390
0
  6
Continuous
100
AcDbLine
 10
49196.677053
 20
20340.772246
 30
0.0
 11
48898.677053
 21
19295.972246
 31
0.0
  0
CIRCLE
  5
13E
100
AcDbEntity
  8
画層0
390
0
  6
Continuous
100
AcDbCircle
 10
49196.677053
 20
20340.772246
 30
0.0
 40
50.0
  0
CIRCLE
  5
13F
100
AcDbEntity
  8
画層0
390
0
  6
Continuous
100
AcDbCircle
 10
48898.677053
 20
19295.972246
 30
0.0
 40
50.0
  0
MTEXT
  5
140
100
AcDbEntity
  8
画層0
390
0
  6
Continuous
 62
     7
100
AcDbMText
 10
48422.605253
 20
19996.656646
 30
0.0
 40
600.0
 41
15000.0
 71
     2
 72
     1
  1
\A1;\W1.00;\T1.00;\Q0.00;105mm
  7
YOKO
 11
0.274283
 21
0.961649
 31
0.0
 73
     2
 44
0.66
  0
LINE
  5
141
100
AcDbEntity
  8
画層0
390
0
  6
Continuous
100
AcDbLine
 10
49860.326053
 20
19021.688846
 30
0.0
 11
48802.512253
 21
19323.400646
 31
0.0
  0
POLYLINE
  5
142
100
AcDbEntity
  8
画層0
390
0
  6
Continuous
100
AcDb2dPolyline
 66
     1
 10
0.0
 20
0.0
 30
0.0
 70
     1
  0
VERTEX
  5
143
100
AcDbEntity
  8
画層0
390
0
  6
Continuous
100
AcDbVertex
100
AcDb2dVertex
 10
47684.764853
 20
11518.394646
 30
0.0
  0
VERTEX
  5
144
100
AcDbEntity
  8
画層0
390
0
  6
Continuous
100
AcDbVertex
100
AcDb2dVertex
 10
47684.764853
 20
10468.394646
 30
0.0
  0
VERTEX
  5
145
100
AcDbEntity
  8
画層0
390
0
  6
Continuous
100
AcDbVertex
100
AcDb2dVertex
 10
59884.764853
 20
10468.394646
 30
0.0
  0
VERTEX
  5
146
100
AcDbEntity
  8
画層0
390
0
  6
Continuous
100
AcDbVertex
100
AcDb2dVertex
 10
59884.764853
 20
11518.394646
 30
0.0
  0
SEQEND
  5
147
100
AcDbEntity
  8
画層0
390
0
  6
Continuous
  0
LINE
  5
148
100
AcDbEntity
  8
画層0
390
0
  6
Continuous
100
AcDbLine
 10
47684.764853
 20
7495.816846
 30
0.0
 11
47684.764853
 21
6395.816846
 31
0.0
  0
LINE
  5
149
100
AcDbEntity
  8
画層0
390
0
  6
Continuous
100
AcDbLine
 10
47684.764853
 20
6495.816846
 30
0.0
 11
59884.764853
 21
6495.816846
 31
0.0
  0
CIRCLE
  5
14A
100
AcDbEntity
  8
画層0
390
0
  6
Continuous
100
AcDbCircle
 10
47684.764853
 20
6495.816846
 30
0.0
 40
50.0
  0
CIRCLE
  5
14B
100
AcDbEntity
  8
画層0
390
0
  6
Continuous
100
AcDbCircle
 10
59884.764853
 20
6495.816846
 30
0.0
 40
50.0
  0
MTEXT
  5
14C
100
AcDbEntity
  8
画層0
390
0
  6
Continuous
 62
     7
100
AcDbMText
 10
53784.764853
 20
7145.816846
 30
0.0
 40
600.0
 41
18000.0
 71
     2
 72
     1
  1
\A1;\W1.00;\T1.00;\Q0.00;1220mm
  7
YOKO
 73
     2
 44
0.66
  0
LINE
  5
14D
100
AcDbEntity
  8
画層0
390
0
  6
Continuous
100
AcDbLine
 10
59884.764853
 20
7495.816846
 30
0.0
 11
59884.764853
 21
6395.816846
 31
0.0
  0
POLYLINE
  5
14E
100
AcDbEntity
  8
画層0
390
0
  6
Continuous
100
AcDb2dPolyline
 66
     1
 10
0.0
 20
0.0
 30
0.0
 70
     1
  0
VERTEX
  5
14F
100
AcDbEntity
  8
画層0
390
0
  6
Continuous
100
AcDbVertex
100
AcDb2dVertex
 10
31166.740053
 20
16038.257046
 30
0.0
  0
VERTEX
  5
150
100
AcDbEntity
  8
画層0
390
0
  6
Continuous
100
AcDbVertex
100
AcDb2dVertex
 10
30116.740053
 20
16038.257046
 30
0.0
  0
VERTEX
  5
151
100
AcDbEntity
  8
画層0
390
0
  6
Continuous
100
AcDbVertex
100
AcDb2dVertex
 10
30116.740053
 20
6838.257046
 30
0.0
  0
VERTEX
  5
152
100
AcDbEntity
  8
画層0
390
0
  6
Continuous
100
AcDbVertex
100
AcDb2dVertex
 10
31166.740053
 20
6838.257046
 30
0.0
  0
SEQEND
  5
153
100
AcDbEntity
  8
画層0
390
0
  6
Continuous
  0
POLYLINE
  5
154
100
AcDbEntity
  8
画層0
390
0
  6
Continuous
100
AcDb2dPolyline
 66
     1
 10
0.0
 20
0.0
 30
0.0
 70
     1
  0
VERTEX
  5
155
100
AcDbEntity
  8
画層0
390
0
  6
Continuous
100
AcDbVertex
100
AcDb2dVertex
 10
23295.134053
 20
16038.257046
 30
0.0
  0
VERTEX
  5
156
100
AcDbEntity
  8
画層0
390
0
  6
Continuous
100
AcDbVertex
100
AcDb2dVertex
 10
22245.134053
 20
16038.257046
 30
0.0
  0
VERTEX
  5
157
100
AcDbEntity
  8
画層0
390
0
  6
Continuous
100
AcDbVertex
100
AcDb2dVertex
 10
22245.134053
 20
6838.257046
 30
0.0
  0
VERTEX
  5
158
100
AcDbEntity
  8
画層0
390
0
  6
Continuous
100
AcDbVertex
100
AcDb2dVertex
 10
23295.134053
 20
6838.257046
 30
0.0
  0
SEQEND
  5
159
100
AcDbEntity
  8
画層0
390
0
  6
Continuous
  0
POLYLINE
  5
15A
100
AcDbEntity
  8
画層0
390
0
  6
Continuous
100
AcDb2dPolyline
 66
     1
 10
0.0
 20
0.0
 30
0.0
 70
     1
  0
VERTEX
  5
15B
100
AcDbEntity
  8
画層0
390
0
  6
Continuous
100
AcDbVertex
100
AcDb2dVertex
 10
21195.134053
 20
16038.257046
 30
0.0
  0
VERTEX
  5
15C
100
AcDbEntity
  8
画層0
390
0
  6
Continuous
100
AcDbVertex
100
AcDb2dVertex
 10
20145.134053
 20
16038.257046
 30
0.0
  0
VERTEX
  5
15D
100
AcDbEntity
  8
画層0
390
0
  6
Continuous
100
AcDbVertex
100
AcDb2dVertex
 10
20145.134053
 20
6838.257046
 30
0.0
  0
VERTEX
  5
15E
100
AcDbEntity
  8
画層0
390
0
  6
Continuous
100
AcDbVertex
100
AcDb2dVertex
 10
21195.134053
 20
6838.257046
 30
0.0
  0
SEQEND
  5
15F
100
AcDbEntity
  8
画層0
390
0
  6
Continuous
  0
POLYLINE
  5
160
100
AcDbEntity
  8
画層0
390
0
  6
Continuous
100
AcDb2dPolyline
 66
     1
 10
0.0
 20
0.0
 30
0.0
 70
     1
  0
VERTEX
  5
161
100
AcDbEntity
  8
画層0
390
0
  6
Continuous
100
AcDbVertex
100
AcDb2dVertex
 10
13316.740053
 20
16038.257046
 30
0.0
  0
VERTEX
  5
162
100
AcDbEntity
  8
画層0
390
0
  6
Continuous
100
AcDbVertex
100
AcDb2dVertex
 10
12266.740053
 20
16038.257046
 30
0.0
  0
VERTEX
  5
163
100
AcDbEntity
  8
画層0
390
0
  6
Continuous
100
AcDbVertex
100
AcDb2dVertex
 10
12266.740053
 20
6838.257046
 30
0.0
  0
VERTEX
  5
164
100
AcDbEntity
  8
画層0
390
0
  6
Continuous
100
AcDbVertex
100
AcDb2dVertex
 10
13316.740053
 20
6838.257046
 30
0.0
  0
SEQEND
  5
165
100
AcDbEntity
  8
画層0
390
0
  6
Continuous
  0
POLYLINE
  5
166
100
AcDbEntity
  8
画層0
390
0
  6
Continuous
100
AcDb2dPolyline
 66
     1
 10
0.0
 20
0.0
 30
0.0
 70
     1
  0
VERTEX
  5
167
100
AcDbEntity
  8
画層0
390
0
  6
Continuous
100
AcDbVertex
100
AcDb2dVertex
 10
11216.740053
 20
16038.257046
 30
0.0
  0
VERTEX
  5
168
100
AcDbEntity
  8
画層0
390
0
  6
Continuous
100
AcDbVertex
100
AcDb2dVertex
 10
11216.740053
 20
14988.257046
 30
0.0
  0
VERTEX
  5
169
100
AcDbEntity
  8
画層0
390
0
  6
Continuous
100
AcDbVertex
100
AcDb2dVertex
 10
32216.740053
 20
14988.257046
 30
0.0
  0
VERTEX
  5
16A
100
AcDbEntity
  8
画層0
390
0
  6
Continuous
100
AcDbVertex
100
AcDb2dVertex
 10
32216.740053
 20
16038.257046
 30
0.0
  0
SEQEND
  5
16B
100
AcDbEntity
  8
画層0
390
0
  6
Continuous
  0
LINE
  5
16C
100
AcDbEntity
  8
画層0
390
0
  6
Continuous
100
AcDbLine
 10
48235.579853
 20
9402.473646
 30
0.0
 11
47934.224653
 21
8344.558046
 31
0.0
  0
LINE
  5
16D
100
AcDbEntity
  8
画層0
390
0
  6
Continuous
100
AcDbLine
 10
47961.620653
 20
8440.732246
 30
0.0
 11
48971.449053
 21
8153.075046
 31
0.0
  0
CIRCLE
  5
16E
100
AcDbEntity
  8
画層0
390
0
  6
Continuous
100
AcDbCircle
 10
47961.620653
 20
8440.732246
 30
0.0
 40
50.0
  0
CIRCLE
  5
16F
100
AcDbEntity
  8
画層0
390
0
  6
Continuous
100
AcDbCircle
 10
48971.449053
 20
8153.075046
 30
0.0
 40
50.0
  0
MTEXT
  5
170
100
AcDbEntity
  8
画層0
390
0
  6
Continuous
 62
     7
100
AcDbMText
 10
48644.608253
 20
8922.035446
 30
0.0
 40
600.0
 41
15000.0
 71
     2
 72
     1
  1
\A1;\W1.00;\T1.00;\Q0.00;105mm
  7
YOKO
 11
0.961741
 21
-0.273959
 31
0.0
 73
     2
 44
0.66
  0
LINE
  5
171
100
AcDbEntity
  8
画層0
390
0
  6
Continuous
100
AcDbLine
 10
49245.408253
 20
9114.816446
 30
0.0
 11
48944.053053
 21
8056.900846
 31
0.0
  0
LINE
  5
172
100
AcDbEntity
  8
画層0
390
0
  6
Continuous
100
AcDbLine
 10
33777.081653
 20
16038.257046
 30
0.0
 11
34877.081653
 21
16038.257046
 31
0.0
  0
LINE
  5
173
100
AcDbEntity
  8
画層0
390
0
  6
Continuous
100
AcDbLine
 10
34777.081653
 20
16038.257046
 30
0.0
 11
34777.081653
 21
6838.257046
 31
0.0
  0
CIRCLE
  5
174
100
AcDbEntity
  8
画層0
390
0
  6
Continuous
100
AcDbCircle
 10
34777.081653
 20
16038.257046
 30
0.0
 40
50.0
  0
CIRCLE
  5
175
100
AcDbEntity
  8
画層0
390
0
  6
Continuous
100
AcDbCircle
 10
34777.081653
 20
6838.257046
 30
0.0
 40
50.0
  0
MTEXT
  5
176
100
AcDbEntity
  8
画層0
390
0
  6
Continuous
 62
     7
100
AcDbMText
 10
34127.081653
 20
11438.257046
 30
0.0
 40
600.0
 41
15000.0
 71
     2
 72
     1
  1
\A1;\W1.00;\T1.00;\Q0.00;920mm
  7
YOKO
 11
0.0
 21
1.0
 31
0.0
 73
     2
 44
0.66
  0
LINE
  5
177
100
AcDbEntity
  8
画層0
390
0
  6
Continuous
100
AcDbLine
 10
33777.081653
 20
6838.257046
 30
0.0
 11
34877.081653
 21
6838.257046
 31
0.0
  0
LINE
  5
178
100
AcDbEntity
  8
画層0
390
0
  6
Continuous
100
AcDbLine
 10
32318.353053
 20
8938.382246
 30
0.0
 11
33418.349853
 21
8935.717046
 31
0.0
  0
LINE
  5
179
100
AcDbEntity
  8
画層0
390
0
  6
Continuous
100
AcDbLine
 10
33318.350053
 20
8935.959246
 30
0.0
 11
33335.548853
 21
16034.304846
 31
0.0
  0
CIRCLE
  5
17A
100
AcDbEntity
  8
画層0
390
0
  6
Continuous
100
AcDbCircle
 10
33318.350053
 20
8935.959246
 30
0.0
 40
50.0
  0
CIRCLE
  5
17B
100
AcDbEntity
  8
画層0
390
0
  6
Continuous
100
AcDbCircle
 10
33335.548853
 20
16034.304846
 30
0.0
 40
50.0
  0
MTEXT
  5
17C
100
AcDbEntity
  8
画層0
390
0
  6
Continuous
 62
     7
100
AcDbMText
 10
32676.951453
 20
12486.707046
 30
0.0
 40
600.0
 41
15000.0
 71
     2
 72
     1
  1
\A1;\W1.00;\T1.00;\Q0.00;710mm
  7
YOKO
 11
0.002423
 21
0.999997
 31
0.0
 73
     2
 44
0.66
  0
LINE
  5
17D
100
AcDbEntity
  8
画層0
390
0
  6
Continuous
100
AcDbLine
 10
32335.551653
 20
16036.727846
 30
0.0
 11
33435.548453
 21
16034.062646
 31
0.0
  0
LINE
  5
17E
100
AcDbEntity
  8
画層0
390
0
  6
Continuous
100
AcDbLine
 10
52794.415653
 20
24977.708246
 30
0.0
 11
52794.415653
 21
26077.708246
 31
0.0
  0
LINE
  5
17F
100
AcDbEntity
  8
画層0
390
0
  6
Continuous
100
AcDbLine
 10
52794.415653
 20
25977.708246
 30
0.0
 11
59884.764853
 21
25977.708246
 31
0.0
  0
CIRCLE
  5
180
100
AcDbEntity
  8
画層0
390
0
  6
Continuous
100
AcDbCircle
 10
52794.415653
 20
25977.708246
 30
0.0
 40
50.0
  0
CIRCLE
  5
181
100
AcDbEntity
  8
画層0
390
0
  6
Continuous
100
AcDbCircle
 10
59884.764853
 20
25977.708246
 30
0.0
 40
50.0
  0
MTEXT
  5
182
100
AcDbEntity
  8
画層0
390
0
  6
Continuous
 62
     7
100
AcDbMText
 10
56339.590253
 20
26627.708246
 30
0.0
 40
600.0
 41
15000.0
 71
     2
 72
     1
  1
\A1;\W1.00;\T1.00;\Q0.00;710mm
  7
YOKO
 73
     2
 44
0.66
  0
LINE
  5
183
100
AcDbEntity
  8
画層0
390
0
  6
Continuous
100
AcDbLine
 10
59884.764853
 20
24977.708246
 30
0.0
 11
59884.764853
 21
26077.708246
 31
0.0
  0
LINE
  5
184
100
AcDbEntity
  8
画層0
390
0
  6
Continuous
100
AcDbLine
 10
50684.804053
 20
23560.489446
 30
0.0
 11
50680.692453
 21
24660.481846
 31
0.0
  0
LINE
  5
185
100
AcDbEntity
  8
画層0
390
0
  6
Continuous
100
AcDbLine
 10
50681.066253
 20
24560.482446
 30
0.0
 11
52788.346253
 21
24568.359246
 31
0.0
  0
CIRCLE
  5
186
100
AcDbEntity
  8
画層0
390
0
  6
Continuous
100
AcDbCircle
 10
50681.066253
 20
24560.482446
 30
0.0
 40
50.0
  0
CIRCLE
  5
187
100
AcDbEntity
  8
画層0
390
0
  6
Continuous
100
AcDbCircle
 10
52788.346253
 20
24568.359246
 30
0.0
 40
50.0
  0
MTEXT
  5
188
100
AcDbEntity
  8
画層0
390
0
  6
Continuous
 62
     7
100
AcDbMText
 10
51732.276653
 20
25214.416246
 30
0.0
 40
600.0
 41
15000.0
 71
     2
 72
     1
  1
\A1;\W1.00;\T1.00;\Q0.00;210mm
  7
YOKO
 11
0.999993
 21
0.003738
 31
0.0
 73
     2
 44
0.66
  0
LINE
  5
189
100
AcDbEntity
  8
画層0
390
0
  6
Continuous
100
AcDbLine
 10
52792.084053
 20
23568.366246
 30
0.0
 11
52787.972453
 21
24668.358446
 31
0.0
  0
LINE
  5
18A
100
AcDbEntity
  8
画層0
390
0
  6
Continuous
100
AcDbLine
 10
32301.354453
 20
6837.379046
 30
0.0
 11
33401.353453
 21
6835.814046
 31
0.0
  0
LINE
  5
18B
100
AcDbEntity
  8
画層0
390
0
  6
Continuous
100
AcDbLine
 10
33301.353453
 20
6835.956246
 30
0.0
 11
33304.343653
 21
8937.610646
 31
0.0
  0
CIRCLE
  5
18C
100
AcDbEntity
  8
画層0
390
0
  6
Continuous
100
AcDbCircle
 10
33301.353453
 20
6835.956246
 30
0.0
 40
50.0
  0
CIRCLE
  5
18D
100
AcDbEntity
  8
画層0
390
0
  6
Continuous
100
AcDbCircle
 10
33304.343653
 20
8937.610646
 30
0.0
 40
50.0
  0
MTEXT
  5
18E
100
AcDbEntity
  8
画層0
390
0
  6
Continuous
 62
     7
100
AcDbMText
 10
32652.849253
 20
7887.708246
 30
0.0
 40
600.0
 41
15000.0
 71
     2
 72
     1
  1
\A1;\W1.00;\T1.00;\Q0.00;210mm
  7
YOKO
 11
0.001423
 21
0.999999
 31
0.0
 73
     2
 44
0.66
  0
LINE
  5
18F
100
AcDbEntity
  8
画層0
390
0
  6
Continuous
100
AcDbLine
 10
32304.344653
 20
8939.033446
 30
0.0
 11
33404.343453
 21
8937.468446
 31
0.0
  0
LINE
  5
190
100
AcDbEntity
  8
画層0
390
0
  6
Continuous
100
AcDbLine
 10
11216.740053
 20
16326.427446
 30
0.0
 11
11216.740053
 21
17426.427446
 31
0.0
  0
LINE
  5
191
100
AcDbEntity
  8
画層0
390
0
  6
Continuous
100
AcDbLine
 10
11216.740053
 20
17326.427446
 30
0.0
 11
32216.740053
 21
17326.427446
 31
0.0
  0
CIRCLE
  5
192
100
AcDbEntity
  8
画層0
390
0
  6
Continuous
100
AcDbCircle
 10
11216.740053
 20
17326.427446
 30
0.0
 40
50.0
  0
CIRCLE
  5
193
100
AcDbEntity
  8
画層0
390
0
  6
Continuous
100
AcDbCircle
 10
32216.740053
 20
17326.427446
 30
0.0
 40
50.0
  0
MTEXT
  5
194
100
AcDbEntity
  8
画層0
390
0
  6
Continuous
 62
     7
100
AcDbMText
 10
21716.740053
 20
17976.427446
 30
0.0
 40
600.0
 41
18000.0
 71
     2
 72
     1
  1
\A1;\W1.00;\T1.00;\Q0.00;2100mm
  7
YOKO
 73
     2
 44
0.66
  0
LINE
  5
195
100
AcDbEntity
  8
画層0
390
0
  6
Continuous
100
AcDbLine
 10
32216.740053
 20
16326.427446
 30
0.0
 11
32216.740053
 21
17426.427446
 31
0.0
  0
MTEXT
  5
196
100
AcDbEntity
  8
画層0
390
0
  6
Continuous
 62
     7
100
AcDbMText
 10
19647.047253
 20
44240.373046
 30
0.0
 40
1000.0
 41
25000.0
 71
     1
 72
     1
  1
\A1;\W1.00;\T1.00;\Q0.00;正 面 図
  7
YOKO
 73
     2
 44
0.66
  0
MTEXT
  5
197
100
AcDbEntity
  8
画層0
390
0
  6
Continuous
 62
     7
100
AcDbMText
 10
19706.576653
 20
19960.975846
 30
0.0
 40
1000.0
 41
25000.0
 71
     1
 72
     1
  1
\A1;\W1.00;\T1.00;\Q0.00;上 部 図
  7
YOKO
 73
     2
 44
0.66
  0
MTEXT
  5
198
100
AcDbEntity
  8
画層0
390
0
  6
Continuous
 62
     7
100
AcDbMText
 10
51471.375253
 20
29366.666446
 30
0.0
 40
1000.0
 41
25000.0
 71
     1
 72
     1
  1
\A1;\W1.00;\T1.00;\Q0.00;側 面 図
  7
YOKO
 73
     2
 44
0.66
  0
MTEXT
  5
199
100
AcDbEntity
  8
画層0
390
0
  6
Continuous
 62
     7
100
AcDbMText
 10
52516.262053
 20
42426.830646
 30
0.0
 40
1000.0
 41
40000.0
 71
     1
 72
     1
  1
\A1;\W1.00;\T1.00;\Q0.00;縮尺　　１／ ２０
  7
YOKO
 73
     2
 44
0.66
  0
LINE
  5
19A
100
AcDbEntity
  8
画層0
390
0
  6
Continuous
100
AcDbLine
 10
10987.641453
 20
14988.257046
 30
0.0
 11
9887.641453
 21
14988.257046
 31
0.0
  0
LINE
  5
19B
100
AcDbEntity
  8
画層0
390
0
  6
Continuous
100
AcDbLine
 10
9987.641453
 20
14988.257046
 30
0.0
 11
9987.641453
 21
16038.257046
 31
0.0
  0
CIRCLE
  5
19C
100
AcDbEntity
  8
画層0
390
0
  6
Continuous
100
AcDbCircle
 10
9987.641453
 20
14988.257046
 30
0.0
 40
50.0
  0
CIRCLE
  5
19D
100
AcDbEntity
  8
画層0
390
0
  6
Continuous
100
AcDbCircle
 10
9987.641453
 20
16038.257046
 30
0.0
 40
50.0
  0
MTEXT
  5
19E
100
AcDbEntity
  8
画層0
390
0
  6
Continuous
 62
     7
100
AcDbMText
 10
9337.641453
 20
15513.257046
 30
0.0
 40
600.0
 41
15000.0
 71
     2
 72
     1
  1
\A1;\W1.00;\T1.00;\Q0.00;105mm
  7
YOKO
 11
0.0
 21
1.0
 31
0.0
 73
     2
 44
0.66
  0
LINE
  5
19F
100
AcDbEntity
  8
画層0
390
0
  6
Continuous
100
AcDbLine
 10
10987.641453
 20
16038.257046
 30
0.0
 11
9887.641453
 21
16038.257046
 31
0.0
  0
LINE
  5
1A0
100
AcDbEntity
  8
画層0
390
0
  6
Continuous
100
AcDbLine
 10
11214.765053
 20
8642.837046
 30
0.0
 11
11214.765053
 21
9742.837046
 31
0.0
  0
LINE
  5
1A1
100
AcDbEntity
  8
画層0
390
0
  6
Continuous
100
AcDbLine
 10
11214.765053
 20
9642.837046
 30
0.0
 11
12262.765053
 21
9642.837046
 31
0.0
  0
CIRCLE
  5
1A2
100
AcDbEntity
  8
画層0
390
0
  6
Continuous
100
AcDbCircle
 10
11214.765053
 20
9642.837046
 30
0.0
 40
50.0
  0
CIRCLE
  5
1A3
100
AcDbEntity
  8
画層0
390
0
  6
Continuous
100
AcDbCircle
 10
12262.765053
 20
9642.837046
 30
0.0
 40
50.0
  0
MTEXT
  5
1A4
100
AcDbEntity
  8
画層0
390
0
  6
Continuous
 62
     7
100
AcDbMText
 10
11738.765053
 20
10292.837046
 30
0.0
 40
600.0
 41
15000.0
 71
     2
 72
     1
  1
\A1;\W1.00;\T1.00;\Q0.00;105mm
  7
YOKO
 73
     2
 44
0.66
  0
LINE
  5
1A5
100
AcDbEntity
  8
画層0
390
0
  6
Continuous
100
AcDbLine
 10
12262.765053
 20
8642.837046
 30
0.0
 11
12262.765053
 21
9742.837046
 31
0.0
  0
POLYLINE
  5
1A6
100
AcDbEntity
  8
画層0
390
0
  6
Continuous
100
AcDb2dPolyline
 66
     1
 10
0.0
 20
0.0
 30
0.0
 70
     1
  0
VERTEX
  5
1A7
100
AcDbEntity
  8
画層0
390
0
  6
Continuous
100
AcDbVertex
100
AcDb2dVertex
 10
32216.740053
 20
29477.708246
 30
0.0
  0
VERTEX
  5
1A8
100
AcDbEntity
  8
画層0
390
0
  6
Continuous
100
AcDbVertex
100
AcDb2dVertex
 10
31166.740053
 20
29477.708246
 30
0.0
  0
VERTEX
  5
1A9
100
AcDbEntity
  8
画層0
390
0
  6
Continuous
100
AcDbVertex
100
AcDb2dVertex
 10
31166.740053
 20
27377.708246
 30
0.0
  0
VERTEX
  5
1AA
100
AcDbEntity
  8
画層0
390
0
  6
Continuous
100
AcDbVertex
100
AcDb2dVertex
 10
32216.740053
 20
27377.708246
 30
0.0
  0
SEQEND
  5
1AB
100
AcDbEntity
  8
画層0
390
0
  6
Continuous
  0
POLYLINE
  5
1AC
100
AcDbEntity
  8
画層0
390
0
  6
Continuous
100
AcDb2dPolyline
 66
     1
 10
0.0
 20
0.0
 30
0.0
 70
     1
  0
VERTEX
  5
1AD
100
AcDbEntity
  8
画層0
390
0
  6
Continuous
100
AcDbVertex
100
AcDb2dVertex
 10
12266.740053
 20
29477.708246
 30
0.0
  0
VERTEX
  5
1AE
100
AcDbEntity
  8
画層0
390
0
  6
Continuous
100
AcDbVertex
100
AcDb2dVertex
 10
11216.740053
 20
29477.708246
 30
0.0
  0
VERTEX
  5
1AF
100
AcDbEntity
  8
画層0
390
0
  6
Continuous
100
AcDbVertex
100
AcDb2dVertex
 10
11216.740053
 20
27377.708246
 30
0.0
  0
VERTEX
  5
1B0
100
AcDbEntity
  8
画層0
390
0
  6
Continuous
100
AcDbVertex
100
AcDb2dVertex
 10
12266.740053
 20
27377.708246
 30
0.0
  0
SEQEND
  5
1B1
100
AcDbEntity
  8
画層0
390
0
  6
Continuous
  0
POLYLINE
  5
1B2
100
AcDbEntity
  8
画層0
390
0
  6
Continuous
100
AcDb2dPolyline
 66
     1
 10
0.0
 20
0.0
 30
0.0
 70
     1
  0
VERTEX
  5
1B3
100
AcDbEntity
  8
画層0
390
0
  6
Continuous
100
AcDbVertex
100
AcDb2dVertex
 10
22241.740053
 20
29477.708246
 30
0.0
  0
VERTEX
  5
1B4
100
AcDbEntity
  8
画層0
390
0
  6
Continuous
100
AcDbVertex
100
AcDb2dVertex
 10
21191.740053
 20
29477.708246
 30
0.0
  0
VERTEX
  5
1B5
100
AcDbEntity
  8
画層0
390
0
  6
Continuous
100
AcDbVertex
100
AcDb2dVertex
 10
21191.740053
 20
27377.708246
 30
0.0
  0
VERTEX
  5
1B6
100
AcDbEntity
  8
画層0
390
0
  6
Continuous
100
AcDbVertex
100
AcDb2dVertex
 10
22241.740053
 20
27377.708246
 30
0.0
  0
SEQEND
  5
1B7
100
AcDbEntity
  8
画層0
390
0
  6
Continuous
  0
LINE
  5
1B8
100
AcDbEntity
  8
画層0
390
0
  6
Continuous
100
AcDbLine
 10
51829.319653
 20
22018.394646
 30
0.0
 11
61593.448653
 21
22025.656846
 31
0.0
  0
LINE
  5
1B9
100
AcDbEntity
  8
画層0
390
0
  6
Continuous
100
AcDbLine
 10
47811.268053
 20
22029.272246
 30
0.0
 11
46711.272053
 21
22032.250046
 31
0.0
  0
LINE
  5
1BA
100
AcDbEntity
  8
画層0
390
0
  6
Continuous
100
AcDbLine
 10
46811.271653
 20
22031.979246
 30
0.0
 11
46777.167853
 21
9434.226246
 31
0.0
  0
CIRCLE
  5
1BB
100
AcDbEntity
  8
画層0
390
0
  6
Continuous
100
AcDbCircle
 10
46811.271653
 20
22031.979246
 30
0.0
 40
50.0
  0
CIRCLE
  5
1BC
100
AcDbEntity
  8
画層0
390
0
  6
Continuous
100
AcDbCircle
 10
46777.167853
 20
9434.226246
 30
0.0
 40
50.0
  0
MTEXT
  5
1BD
100
AcDbEntity
  8
画層0
390
0
  6
Continuous
 62
     7
100
AcDbMText
 10
46144.222053
 20
15734.862446
 30
0.0
 40
600.0
 41
18000.0
 71
     2
 72
     1
  1
\A1;\W1.00;\T1.00;\Q0.00;1260mm
  7
YOKO
 11
0.002707
 21
0.999996
 31
0.0
 73
     2
 44
0.66
  0
LINE
  5
1BE
100
AcDbEntity
  8
画層0
390
0
  6
Continuous
100
AcDbLine
 10
47777.164053
 20
9431.519246
 30
0.0
 11
46677.168053
 21
9434.497046
 31
0.0
  0
LINE
  5
1BF
100
AcDbEntity
  8
画層0
390
0
  6
Continuous
100
AcDbLine
 10
34763.240053
 20
29477.708246
 30
0.0
 11
35863.240053
 21
29477.708246
 31
0.0
  0
LINE
  5
1C0
100
AcDbEntity
  8
画層0
390
0
  6
Continuous
100
AcDbLine
 10
35763.240053
 20
29477.708246
 30
0.0
 11
35763.240053
 21
27377.708246
 31
0.0
  0
CIRCLE
  5
1C1
100
AcDbEntity
  8
画層0
390
0
  6
Continuous
100
AcDbCircle
 10
35763.240053
 20
29477.708246
 30
0.0
 40
50.0
  0
CIRCLE
  5
1C2
100
AcDbEntity
  8
画層0
390
0
  6
Continuous
100
AcDbCircle
 10
35763.240053
 20
27377.708246
 30
0.0
 40
50.0
  0
MTEXT
  5
1C3
100
AcDbEntity
  8
画層0
390
0
  6
Continuous
 62
     7
100
AcDbMText
 10
35113.240053
 20
28427.708246
 30
0.0
 40
600.0
 41
15000.0
 71
     2
 72
     1
  1
\A1;\W1.00;\T1.00;\Q0.00;210mm
  7
YOKO
 11
0.0
 21
1.0
 31
0.0
 73
     2
 44
0.66
  0
LINE
  5
1C4
100
AcDbEntity
  8
画層0
390
0
  6
Continuous
100
AcDbLine
 10
34763.240053
 20
27377.708246
 30
0.0
 11
35863.240053
 21
27377.708246
 31
0.0
  0
LINE
  5
1C5
100
AcDbEntity
  8
画層0
390
0
  6
Continuous
100
AcDbLine
 10
10342.062853
 20
39977.708246
 30
0.0
 11
9242.062853
 21
39977.708246
 31
0.0
  0
LINE
  5
1C6
100
AcDbEntity
  8
画層0
390
0
  6
Continuous
100
AcDbLine
 10
9342.062853
 20
39977.708246
 30
0.0
 11
9342.062853
 21
27377.708246
 31
0.0
  0
CIRCLE
  5
1C7
100
AcDbEntity
  8
画層0
390
0
  6
Continuous
100
AcDbCircle
 10
9342.062853
 20
39977.708246
 30
0.0
 40
50.0
  0
CIRCLE
  5
1C8
100
AcDbEntity
  8
画層0
390
0
  6
Continuous
100
AcDbCircle
 10
9342.062853
 20
27377.708246
 30
0.0
 40
50.0
  0
MTEXT
  5
1C9
100
AcDbEntity
  8
画層0
390
0
  6
Continuous
 62
     7
100
AcDbMText
 10
8692.062853
 20
33677.708246
 30
0.0
 40
600.0
 41
18000.0
 71
     2
 72
     1
  1
\A1;\W1.00;\T1.00;\Q0.00;1260mm
  7
YOKO
 11
0.0
 21
1.0
 31
0.0
 73
     2
 44
0.66
  0
LINE
  5
1CA
100
AcDbEntity
  8
画層0
390
0
  6
Continuous
100
AcDbLine
 10
10342.062853
 20
27377.708246
 30
0.0
 11
9242.062853
 21
27377.708246
 31
0.0
  0
LINE
  5
1CB
100
AcDbEntity
  8
作業ﾚｲﾔ1
390
0
100
AcDbLine
 10
71539.466679
 20
2518.066334
 30
0.0
 11
71515.543959
 21
2525.184542
 31
0.0
  0
INSERT
  5
1F0
100
AcDbEntity
  8
V-nasSTD
370
    13
390
0
100
AcDbBlockReference
  2
GROUP1
 10
0.0
 20
0.0
 30
0.0
  0
MTEXT
  5
1F1
100
AcDbEntity
  8
作業ﾚｲﾔ1
370
     0
390
0
100
AcDbMText
 10
73127.395767
 20
9225.119582
 30
0.0
 40
768.0
 41
24000.0
 71
     1
 72
     1
  1
\A1;\W1.20;\T1.04;\Q0.00;平成17年度
  7
YOKO_GOTHIC
 73
     2
 44
0.66
  0
MTEXT
  5
1F2
100
AcDbEntity
  8
作業ﾚｲﾔ1
370
     0
390
0
100
AcDbMText
 10
71960.31534
 20
5781.263102
 30
0.0
 40
768.0
 41
37440.0
 71
     1
 72
     1
  1
\A1;\W1.00;\T1.75;\Q0.00;自然災害防止
  7
YOKO_GOTHIC
 73
     2
 44
0.66
  0
MTEXT
  5
1F3
100
AcDbEntity
  8
作業ﾚｲﾔ1
370
     0
390
0
100
AcDbMText
 10
71956.893975
 20
7008.196574
 30
0.0
 40
768.0
 41
34867.2
 71
     1
 72
     1
  1
\A1;\W0.80;\T1.15;\Q0.00;五島市富江町大瀬ノ平
  7
YOKO_GOTHIC
 73
     2
 44
0.66
  0
MTEXT
  5
1F4
100
AcDbEntity
  8
作業ﾚｲﾔ1
370
     0
390
0
100
AcDbMText
 10
71598.584823
 20
4680.819902
 30
0.0
 40
768.0
 41
42240.0
 71
     1
 72
     1
  1
\A1;\W1.00;\T1.00;\Q0.00;長崎県五島地方局林務課
  7
YOKO_GOTHIC
 73
     2
 44
0.66
  0
MTEXT
  5
1F5
100
AcDbEntity
  8
作業ﾚｲﾔ1
370
     0
390
0
100
AcDbMText
 10
75571.548759
 20
8160.621278
 30
0.0
 40
768.0
 41
25440.0
 71
     2
 72
     1
  1
\A1;\W0.39;\T2.28;\Q0.00;丸太パネル標準図
  7
YOKO_GOTHIC
 73
     2
 44
0.66
  0
MTEXT
  5
1F6
100
AcDbEntity
  8
作業ﾚｲﾔ1
370
     0
390
0
100
AcDbMText
 10
78782.597464
 20
3507.845054
 30
0.0
 40
768.0
 41
9120.0
 71
     2
 72
     1
  1
\A1;\W1.00;\T1.38;\Q0.00;図示
  7
YOKO_GOTHIC
 11
1.0
 21
0.0
 31
0.0
 73
     2
 44
0.66
  0
ENDSEC
  0
SECTION
  2
OBJECTS
  0
DICTIONARY
  5
19
100
AcDbDictionary
280
     0
281
     1
  3
ACAD_GROUP
350
1A
  3
ACAD_MLINESTYLE
350
1B
  3
ACAD_LAYOUT
350
1E
  3
ACAD_PLOTSETTINGS
350
22
  3
ACAD_PLOTSTYLENAME
350
1F
  0
DICTIONARY
  5
1A
102
{ACAD_REACTORS
330
19
102
}
100
AcDbDictionary
280
     0
281
     1
  0
DICTIONARY
  5
1B
102
{ACAD_REACTORS
330
19
102
}
100
AcDbDictionary
280
     0
281
     1
  3
Standard
350
1C
  0
MLINESTYLE
  5
1C
102
{ACAD_REACTORS
330
1B
102
}
100
AcDbMlineStyle
  2
Standard
 70
     0
  3

 62
     0
 51
90.0
 52
90.0
 71
     2
 49
0.5
 62
   256
  6
ByLayer
 49
-0.5
 62
   256
  6
ByLayer
  0
ACDBDICTIONARYWDFLT
  5
1F
102
{ACAD_REACTORS
330
19
102
}
100
AcDbDictionary
281
     1
  3
Normal
350
1D
100
AcDbDictionaryWithDefault
340
1D
  0
ACDBPLACEHOLDER
  5
1D
102
{ACAD_REACTORS
330
1F
102
}
  0
LAYOUT
  5
20
102
{ACAD_REACTORS
330
1E
102
}
100
AcDbPlotSettings
  1

  2

  4

  6

 40
0.0
 41
0.0
 42
0.0
 43
0.0
 44
0.0
 45
0.0
 46
0.0
 47
0.0
 48
0.0
 49
0.0
140
0.0
141
0.0
142
1.0
143
1.0
 70
  1024
 72
     0
 73
     0
 74
     0
  7

 75
     0
147
1.0
148
0.0
149
0.0
100
AcDbLayout
  1
Model
 70
     0
 71
     0
 10
0.0
 20
0.0
 11
0.0
 21
0.0
 12
0.0
 22
0.0
 32
0.0
 14
0.0
 24
0.0
 34
0.0
 15
0.0
 25
0.0
 35
0.0
146
0.0
 13
0.0
 23
0.0
 33
0.0
 16
0.0
 26
0.0
 36
0.0
 17
0.0
 27
0.0
 37
0.0
 76
     0
330
A
331
0
345
0
346
0
  0
LAYOUT
  5
21
102
{ACAD_REACTORS
330
1E
102
}
100
AcDbPlotSettings
  1

  2

  4

  6

 40
0.0
 41
0.0
 42
0.0
 43
0.0
 44
0.0
 45
0.0
 46
0.0
 47
0.0
 48
0.0
 49
0.0
140
0.0
141
0.0
142
1.0
143
1.0
 70
     0
 72
     0
 73
     0
 74
     0
  7

 75
     0
147
1.0
148
0.0
149
0.0
100
AcDbLayout
  1
Layout1
 70
     0
 71
     0
 10
0.0
 20
0.0
 11
0.0
 21
0.0
 12
0.0
 22
0.0
 32
0.0
 14
0.0
 24
0.0
 34
0.0
 15
0.0
 25
0.0
 35
0.0
146
0.0
 13
0.0
 23
0.0
 33
0.0
 16
0.0
 26
0.0
 36
0.0
 17
0.0
 27
0.0
 37
0.0
 76
     0
330
B
331
0
345
0
346
0
  0
DICTIONARY
  5
1E
102
{ACAD_REACTORS
330
19
102
}
100
AcDbDictionary
280
     0
281
     1
  3
Layout1
350
21
  3
Model
350
20
  0
DICTIONARY
  5
22
102
{ACAD_REACTORS
330
19
102
}
100
AcDbDictionary
280
     0
281
     1
  0
ENDSEC
  0
EOF
